Dire Straits

Water of Love

(Mark Knopfler)
Intro:
  D                                     C
e|--/10--------------------------------|-----/10~~-------------------------|
B|-------13\12\10-----------10---------|-----------------/13\12--10-10-10--|
G|----------------10--10/11------------|-----------------------------------|slide
D|-------------------------------------|-----------------------------------|
A|-------------------------------------|-----------------------------------|
E|-------------------------------------|-----------------------------------|
 |                                     |                                   |
e|-------------------------------------|-----------------------------------|
B|-------------------------------------|-----------------------------------|
G|-------------------------------------|-----------------------------------|electric
D|-------------------------------------|-----------------------------------|
A|-------------------------------------|-----------------------------------|
E|-------------------------------------|-----------------------------------|

  G                                     D
e|-------10~~-----------------10~------|-/8--8----/8-8-----/8--8---/8-8----|
B|-10/12--------------10-10/12---------|-------10---------------10---------|
G|-------------------------------------|-----------------------------------|
D|-------------------------------------|-----------------------------------|
A|-------------------------------------|-----------------------------------|
E|-------------------------------------|-----------------------------------|
 |                                     |                                   |
e|-------------------------------------|-----------------------------------|
B|-------------------------------------|-----------------------------------|
G|-------------------------------------|-----------------------------------|
D|-------------------------------------|-----------------------------------|
A|-------------------------------------|-----------------------------------|
E|-------------------------------------|-----------------------------------|

  D                                     C
e|--/10--------------------------------|-----/10~~-------------------------|
B|-----10--13\12\10----------10--------|-----------------------13\12\10----|
G|------------------10--10/11----------|-----------------------------------|
D|-------------------------------------|-----------------------------------|
A|-------------------------------------|-----------------------------------|
E|-------------------------------------|-----------------------------------|
 |                                     |                                   |
e|-------------------------------------|------------------------8--7--5----|
B|---------------------------8-7-6-5---|-----------------------------------|
G|-----------------------------------7-|--5--------------------------------|
D|-------------------------------------|-----------------------------------|
A|-------------------------------------|-----------------------------------|
E|-------------------------------------|-----------------------------------|

  G                                      D
e|-------10~~--------------------------|-----------------------------------|
B|-10/12-------------------------------|-----------------------------------|
G|--------------------------/10\9--7---|-----------------------------------|
D|--------------------------/10\9----7-|-(7)---------------2/3--0---0-5/7--|
A|-------------------------------------|-----------------------------------|
E|-------------------------------------|-----------------------------------|
 |                                     |                                   |
e|-------------------------------------|-----------------------------------|
B|-------------------------------------|----5--x--5/7----------------------|
G|-------------------------------------|----5--x--5/7-------------------7--|
D|-------------------------------------|--------------------2b--0---7-9----|
A|-------------------------------------|-----------------------------------|
E|-------------------------------------|-----------------------------------|


Verse 1:
D
High and dry in the long hot day
D
Lost and lonely in every way
        Am
Got the flats all around me, sky up above,
D
Yes, I need a little water of love

Verse 2:
D
I've been too long lonely and my heart feels pain
D
Crying out for some soothing rain
Am
I believe I've taken enough,
D
I need a little water of love

Chorus:
Am7
Water of love deep in the ground,
           G                 D
but there aint no water here to be found
Am7
Some day baby when the river runs free,
            G             D
It's gonna carry that water of love to me


Slide fill:
e|--/10--------------------------------|-----/10\9/10----------------------|
B|-----10-13\12\10-----------10--------|-----------------/13\12--10-10-10--|
G|----------------10--10/11------------|-----------------------------------|
D|-------------------------------------|-----------------------------------|
A|-------------------------------------|-----------------------------------|
E|-------------------------------------|-----------------------------------|

e|-------10~~-----------------10~------|-/8--8----/8-8-----/8--8---/8-8\---|
B|-10/12--------------10-10/12---------|-------10---------------10---------|
G|-------------------------------------|-----------------------------------|
D|-------------------------------------|-----------------------------------|
A|-------------------------------------|-----------------------------------|
E|-------------------------------------|-----------------------------------|


Verse 3:
          D
There's a bird up in a tree sitting up high
D
Waiting for me to die
Am
If I don't get some water soon
         D
I'll be dead and gone in the afternoon

chorus

Slide break:
e|------------------------------|-----------------------------------|
B|------------------------------|-----------------------------------|
G|--/7~----------------/7-/7-/7-|-/7\5---------------10---10-----11-|
D|------------------------------|----------------9/10---10---9/11---|
A|------------------------------|-----------------------------------|
E|------------------------------|-----------------------------------|

e|-----------------------10-----|--/8--8----/8-8-----------/12~~----|
B|------------------/12-----8\--|--------10-------------------------|
G|--11/12-12--------------------|-----------------------------------|
D|------------------------------|-----------------------------------|
A|------------------------------|-----------------------------------|
E|------------------------------|-----------------------------------|


Verse 4:
D
Once I had a woman I could call my own,
D
Once I had a woman now my woman is gone
Am
Once there was a river now there's a stone
D
You know it's evil when you're living alone

chorus (x2)


/  slide up
\  slide down
h  hammer-on
p  pull-off
~  vibrato
+  harmonic
x  Mute note
из альбомов: “Dire Straits” (1978), “Water of Love” (сингл) (1978), “Live at the BBC” (концертная запись) (1995)


Список песен по алфавиту

Возможно, будут также интересны следующие песни:
Telegraph Road
Romeo and Juliet
Money for Nothing
смотреть далее…
Если у вас есть подбор, которого нет на сайте, и вы хотите его опубликовать — присылайте!