Dire Straits

Lions

(Mark Knopfler)
|------------------------------------------------------------------------------------|
|--15--17--17b----14--17------14----------15--17b--17b--15h17------------------------|
|-------------------------16------14--16-----------------------16--16----------------|
|------------------------------------------------------------------------------------|
|------------------------------------------------------------------------------------|
|------------------------------------------------------------------------------------|

|--17b----14--17--14-----------------------------------------------------------------|
|---------------------17--15------17b--17b--15---------------------------------------|
|-----------------------------16----------------16--14--16---------------------------|
|-----------------------------------------------------------16sd---------------------|
|------------------------------------------------------------------------------------|
|------------------------------------------------------------------------------------|

Hm      D       A         G7
Red sun go down way over dirty town
Hm             D                A     G7
Starlings are sweeping around crazy shoals
Hm          D              A          G7
They send a girl is there high heeling across the square
Hm           D                A                        G7
Wind blows around in her hair and the flags upon the poles
Em
Waiting in the crowd to cross at the light
                    G     F#7                  Hm  F#m  Hm  F#m  C7
She looks around to find a face she can like

|------------------------------------------------------------------------------------|
|--10b--10b--7--10--7----------------------------------------------------------------|
|----------------------9--7----------------------------------------------------------|
|----------------------------9----9--7h9--7h9----------------------------------------|
|----------------------------------------------9sd-----------------------------------|
|------------------------------------------------------------------------------------|

(repeat chords)

Church bell clinging on just to trying to get a crowd for Evensong
Nobody cares to depend upon the chime it plays
They're all in the station praying for trains the congregation late again
It's getting darker all the time these flagpole days
Drunk old soldier he gave her a fright he's crazy lion he's howling for a fight

|--19----17--15--14------14--15------14--------------------------------------------|
|--------------------17----------17------15------------------17b--17b--17b--15-----|
|--------------------------------------------14--16--14--16------------------------|
|----------------------------------------------------------------------------------|
|----------------------------------------------------------------------------------|
|----------------------------------------------------------------------------------|

|------------14--15--14------14----------------------------------------------------|
|--17b--17b--------------17------15--15h17--17b--17b--17--15h17--------------------|
|----------------------------------------------------------------16--16------------|
|----------------------------------------------------------------------------------|
|----------------------------------------------------------------------------------|
|----------------------------------------------------------------------------------|

|----------------------------------------------------------------------------------|
|----------------------------------------------------------------------------------|
|--16--14--14--14------------------------------------------------------------------|
|------------------16--16--14------------------------------------------------------|
|------------------------------17--17----------------------------------------------|
|--------------------------------------14sd----------------------------------------|

(repeat chords)

Strap hanging gunshot sound doors slamming on the overground
Starlings are tough but the lions are made of stone
Her evening paper is horror torn but there's hope later Capricorns
Lucky stars give her just enough to get her home
Then she's reading about a swing to the right
But she's thinking about a stranger in the night

|------------------------------12--10--9-------------------------------------------|
|--10brb--7--10--7------------------------12----------10--8--7---------------------|
|-------------------9--7----------------------------------------9--7--7------------|
|----------------------------------------------------------------------------------|
|----------------------------------------------------------------------------------|
|----------------------------------------------------------------------------------|

I'm thinking about the lions, thinking about the loins
What happened to the lions, to the lions, to the lions, to the lions
из альбомов: “Dire Straits” (1978), “Live at the BBC” (концертная запись) (1995)


Список песен по алфавиту

Возможно, будут также интересны следующие песни:
Telegraph Road
Romeo and Juliet
Money for Nothing
смотреть далее…
Если у вас есть подбор, которого нет на сайте, и вы хотите его опубликовать — присылайте!