Nirvana

Endless, Nameless

(Kurt Cobain, Dave Grohl, Krist Novoselic)
Intro:
|-----------------------------|
|-----------------------------|
|-0-0-0-0-0-0-0-0-------------|   play this figure
|-0-0-0-0-0-0-0-0-------------|          4x
|-0-0-0-0-0-0-0-0-------------|
|-0-0-0-0-0-0-0-0-------------|
    PM------------------------|
                              1/4
                                )
|-------------|-------------|-14)~~~~~|-14-----------------|
|-------------|-------------|-14------|-14-----------------|
|-----0-0-0-0-|-----0-0-0-0-|---------|----0-0-0-0-0-0-0---|
|-x/x-0-0-0-0-|-x/x-0-0-0-0-|---------|----0-0-0-0-0-0-0---|
|-----0-0-0-0-|-----0-0-0-0-|---------|----0-0-0-0-0-0-0---|
|-----0-0-0-0-|-----0-0-0-0-|---------|----0-0-0-0-0-0-0---|
      PM----|       PM----|                PM--------------|

   3/4                          1/4
    )                            )
|-13)~~~~~|-13---------------|-15)~~~~~|-15-----------------|
|-13------|-13---------------|-15------|-15-----------------|
|---------|----0-0-0-0-0-0-0-|---------|----0-0-0-0-0-0-0---|
|---------|----0-0-0-0-0-0-0-|---------|----0-0-0-0-0-0-0---|
|---------|----0-0-0-0-0-0-0-|---------|----0-0-0-0-0-0-0---|
|---------|----0-0-0-0-0-0-0-|---------|----0-0-0-0-0-0-0---|
               PM----------|                PM--------------|
   1/4
    )
|-16)~~~~~|~~~~~|
|-16------|-----|
|---------|-----|
|---------|-----|
|---------|-----|
|---------|-----|

Verse:
           1/2           1/2           1/2           1/2
            )             )             )             )
|---------14)-|---------12)-|---------12)-|---------15)-|
|---------14--|---------12--|---------12--|---------15--|
|-0-0-0-0-----|-0-0-0-0-----|-0-0-0-0-----|-0-0-0-0-----|
|-0-0-0-0-----|-0-0-0-0-----|-0-0-0-0-----|-0-0-0-0-----|
|-0-0-0-0-----|-0-0-0-0-----|-0-0-0-0-----|-0-0-0-0-----|
|-0-0-0-0-----|-0-0-0-0-----|-0-0-0-0-----|-0-0-0-0-----|
          1/2           1/2            1/2          1/2
            )             )             )             )
|---------13)-|---------11)-|---------14)-|---------14)-|
|---------13--|---------11--|---------14--|---------14--|
|-0-0-0-0-----|-0-0-0-0-----|-0-0-0-0-----|-0-0-0-0-----|
|-0-0-0-0-----|-0-0-0-0-----|-0-0-0-0-----|-0-0-0-0-----|
|-0-0-0-0-----|-0-0-0-0-----|-0-0-0-0-----|-0-0-0-0-----|
|-0-0-0-0-----|-0-0-0-0-----|-0-0-0-0-----|-0-0-0-0-----|

Chorus
|------------|------------|-----------|------------|
|------------|------------|-----------|------------|
|------------|------------|---5-------|------------|
|----5---5---|----4---4---|-------5---|----4---4---|
|-3----3---3-|-2----2---2-|-3---3---5-|-2----2---2-|
|------------|------------|-----------|------------|


~~~ = vibrato
x/x = pick scrape
PM = palm mute
) = unison bend


Silence
Here I am
Here I am
Silent

Bright and clear
Its what I am
I have
Died

Mother (x4)

Death
With violence
Excitement
Right here

Died
Go to hell
Here I am
Right here

Owwww!

No mass (x4)

Death
Is what I am
Go to hell
Go to jail
In back of that
Crime
Here I am
Take a chance
Dead!

Die!
из альбомов: “Nevermind” (1991), “Come as You Are” (сингл) (1992)


Список песен по алфавиту

Возможно, будут также интересны следующие песни:
Dumb
Where Did You Sleep Last Night
Opinion
смотреть далее…
Если у вас есть подбор, которого нет на сайте, и вы хотите его опубликовать — присылайте!