Nirvana

Scentless Apprentice

(Kurt Cobain, Dave Grohl, Krist Novoselic)
Intro
eb|-0--0--1--1--1--2-2-2-2-3/19-|-0--0--1--1--1--2-2-2-2-3/19-|
Bb|-0--0--0--0--0--0-0-0-0-0----|-0--0--0--0--0--0-0-0-0-0----|
Gb|-----------------------------|-----------------------------|
Db|-----------------------------|-----------------------------|
Ab|-----------------------------|-----------------------------|
Eb|-----------------------------|-----------------------------|

eb|-0--0--1--1--1--2-2-2-2-3/19-|-0--0--1--1--1--2-2-2-2-3/19-|
Bb|-0--0--0--0--0--0-0-0-0-0----|-0--0--0--0--0--0-0-0-0-0----|
Gb|-----------------------------|-----------------------------|
Db|-----------------------------|-----------------------------|
Ab|-----------------------------|-----------------------------|
Eb|-----------------------------|-----------------------------|

Verse
eb|--------------------------|--------------------------|
Bb|--------------------------|--------------------------|
Gb|--------------------------|--------------------------|
Db|-4--4--7-4--7-4-4-4-4-7-4-|-4--4--7-4--7-4-4-4-4-7-4-|
Ab|-4--4--7-4--7-4-4-4-4-7-4-|-4--4--7-4--7-4-4-4-4-7-4-|
Eb|-2--2--5-2--5-2-2-2-2-5-2-|-2--2--5-2--5-2-2-2-2-5-2-|

eb|--------------------------|--------------------------|
Bb|--------------------------|--------------------------|
Gb|--------------------------|--------------------------|
Db|-4--4--7-4--7-4-4-4-4-7-4-|-4--4--7-4--7-4-4-4-4-7-4-|
Ab|-4--4--7-4--7-4-4-4-4-7-4-|-4--4--7-4--7-4-4-4-4-7-4-|
Eb|-2--2--5-2--5-2-2-2-2-5-2-|-2--2--5-2--5-2-2-2-2-5-2-|
 
eb|--------------------------|
Bb|-4--4--4b--4--4-4-4-4-4-4-|
Gb|--------------------------|
Db|--------------------------|
Ab|--------------------------|
Eb|--------------------------|

eb|--------------------------|
Bb|--------------------------|
Gb|--------------------------|
Db|-4--4--7-4--7-4-4-4-4-7-4-|
Ab|-4--4--7-4--7-4-4-4-4-7-4-|
Eb|-2--2--5-2--5-2-2-2-2-5-2-|

eb|--------------------------|
Bb|-4--4--4b--4--4-4-4-4-4-4-|
Gb|--------------------------|
Db|--------------------------|
Ab|--------------------------|
Eb|--------------------------|

eb|--------------------------|
Bb|--------------------------|
Gb|--------------------------|
Db|-4--4--7-4--7-4-4-4-4-7-4-|
Ab|-4--4--7-4--7-4-4-4-4-7-4-|
Eb|-2--2--5-2--5-2-2-2-2-5-2-|

eb|--------------------------|
Bb|-4--4--4b--4--4-4-4-4-4-4-|
Gb|--------------------------|
Db|--------------------------|
Ab|--------------------------|
Eb|--------------------------|

eb|--------------------------|
Bb|--------------------------|
Gb|--------------------------|
Db|-4--4--7-4--7-4-4-4-4-7-4-|
Ab|-4--4--7-4--7-4-4-4-4-7-4-|
Eb|-2--2--5-2--5-2-2-2-2-5-2-|

Pre-Chorus
eb|-------------------------------------------------------------------------|
Bb|-------------------------------------------------------------------------|
Gb|-------------------------------------------------------------------------|
Db|-------------------------------------------------------------------------|
Ab|-3--3-3-3-3-3-3-3--3/5-5-5-5-5-5-5-5--5/7-7-7-7-7-7-7-7--7/8-8-8-8-8-8-8-|
Eb|-------------------------------------------------------------------------|

eb|-------------------------------------------------------------------------|
Bb|-------------------------------------------------------------------------|
Gb|-------------------------------------------------------------------------|
Db|-------------------------------------------------------------------------|
Ab|-10--10-10-10-10-10-10-10--10/12--12-12-12-12--12/15--15-15-15/12-12-12--|
Eb|-------------------------------------------------------------------------|

Chorus
eb|-0--0--1--1--1--2-2-2-2-3/19-|-0--0--1--1--1--2-2-2-2-3/19-|
Bb|-0--0--0--0--0--0-0-0-0-0----|-0--0--0--0--0--0-0-0-0-0----|
Gb|-----------------------------|-----------------------------|
Db|-----------------------------|-----------------------------|
Ab|-----------------------------|-----------------------------|
Eb|-----------------------------|-----------------------------|

eb|-0--0--1--1--1--2-2-2-2-3/19-|-0--0--1--1--1--2-2-2-2-3/19-|
Bb|-0--0--0--0--0--0-0-0-0-0----|-0--0--0--0--0--0-0-0-0-0----|
Gb|-----------------------------|-----------------------------|
Db|-----------------------------|-----------------------------|
Ab|-----------------------------|-----------------------------|
Eb|-----------------------------|-----------------------------|

Solo
eb|---------------------------------------------------------|
Bb|-----------------------------------15b-------------------|
Gb|-12b-------------------------------12b---------------14b-|
Db|------------------12---------------13b---------------15b-|
Ab|------------------12---------------------------------12b-|
Eb|---------------------------------------------------------|

eb|-----------------------------------15b-------------------|
Bb|------------------15b--------------14b-------------------|
Gb|-15r--------------14b--------------------------------15b-|
Db|-----------------------------------------------------14b-|
Ab|---------------------------------------------------------|
Eb|---------------------------------------------------------|

Outro
eb|----------------------|
Bb|----------------------|
Gb|----------------------|
Db|-4r-------------------|
Ab|-4r-------------------|
Eb|-2r-------------------|


The Song follows this format:
Intro
Verse
Pre-Chorus
Chorus
Verse
Pre-chorus
Chorus
Solo
Verse
Pre-Chorus
Chorus (x2)
Outro

Verse 1:
Like most babies smell like butter
His smell smelled like no other
He was born scentless and senseless
He was born a scentless apprentice

Chorus:
Hey
Go away
Go away
Go away

Verse 2:
Every wet nurse refused to feed him
Electrolytes smell like semen
I promise not to sell your perfumed secrets
There are countless formulas for pressing flowers

Chorus:
Hey
Go away
Go away
Go away

Solo

Verse 3:
I lie in the soil and fertilize mushrooms
Leaking out gas fumes are made into perfume
You can't fire me because I quit!
Throw me in the fire and I won't throw a fit

Chorus:
Hey
Go away
Go away
Go away
Go away
Go away
Go away
из альбомов: “In Utero” (1993), “From the Muddy Banks of the Wishkah” (концертная запись) (1996)


Список песен по алфавиту

Возможно, будут также интересны следующие песни:
Dumb
Where Did You Sleep Last Night
Opinion
смотреть далее…
Если у вас есть подбор, которого нет на сайте, и вы хотите его опубликовать — присылайте!