Nirvana

Milk It

(Kurt Cobain)
Tuning: 1/2 step down (Eb Ab Db Gb Bb eb)

Intro:
|-12---------------11--------5--x-x-x-|-7-----5--------------------------|
|----11-12-----10----------5----------|-----6----------7--6--5--4--3-----|
|------------9------------------------|---5--------6------------------4\-|
|---------------------9---------------|----------7-----------------------|
|-----------------------0-------------|----------------------------------|
|-------------------------------------|----------------------------------|
Clean Tone

  A#5    E5    G5          G#5   E5     A#5    E5    G5
|-------------------------------------|----------------------------------|
|-------------------------------------|----------------------------------|
|--------9-9--------------------------|--------9-9-----------------------|
|-8-8-8--9-9--5-5---5-5-5--6-6--2-2-2-|-8-8-8--9-9--5-5---5--------------|
|-8-8-8--7-7--5-5---5-5-5--6-6--2-2-2-|-8-8-8--7-7--5-5---5--------------|
|-6-6-6-------3-3-0-3-3-3--4-4--0-0-0-|-6-6-6-------3-3-0-3--------------|
Dist ON

  A#5    E5    G5          G#5   E5     A#5    E5    G5
|-------------------------------------|----------------------------------|
|-------------------------------------|----------------------------------|
|--------9-9--------------------------|--------9-9-----------------------|
|-8-8-8--9-9--5-5---5-5-5--6-6--2-2-2-|-8-8-8--9-9--5-5---5--------------|
|-8-8-8--7-7--5-5---5-5-5--6-6--2-2-2-|-8-8-8--7-7--5-5---5--------------|
|-6-6-6-------3-3-0-3-3-3--4-4--0-0-0-|-6-6-6-------3-3-0-3--------------|

  A#5    E5    G5          G#5   E5     A#5    E5    G5      G#5     E5
|-------------------------------------|------------------------------------|
|-------------------------------------|------------------------------------|
|--------9-9--------------------------|--------9-9-------------------------|
|-8-8-8--9-9--5-5---5-5-5--6-6--2-2-2-|-8-8-8--9-9--5-5---5/6-6-6-6-2-2-2-2|
|-8-8-8--7-7--5-5---5-5-5--6-6--2-2-2-|-8-8-8--7-7--5-5---5/6-6-6-6-2-2-2-2|
|-6-6-6-------3-3-0-3-3-3--4-4--0-0-0-|-6-6-6-------3-3-0-3/4-4-4-4-0-0-0-0|

 N.C
(This bit is in CLEAN TONE and played slower)
|---|--------------------3/|---------------------3|----------------------3|
|---|----------------------|----------------------|-----------------------|
|---|------------------2---|-------------------2--|-------------------2---|
|---|----------------------|----------------------|-----------------------|
|---|----------------------|----------------------|-----------------------|
|6-0|-6-6--6-6-6-6-6-0-----|6-6-6-6-6-6-6-6-0-----|-6-6-6-6-6-6-6-6-0-----|


Verse 1:
  N.C
        I am my own parasite,  I don't need a host to live,we feed off of 
|-----------------------------------------------------------------------|
|-----------------------------------------------------------------------|
|-----------------------------------------------------------------------|
|-----------------------------------------------------------------------|
|-----------------------------------------------------------------------|
|-6--6-6-6-6-6-6-6--0-0-0-0-0--6-6-6-6-6-6-6--0-0-0-0-0-0--6--6-6--6-6--|

 each other, We can share our endorphins
|------------------------------------------|
|------------------------------------------|
|------------------------------------------|
|------------------------------------------|
|------------------------------------------|
|-0--0-0----6--6-6---6-6---6---0--0---0----|


Chorus:
  A#5    E5    G5          G#5   E5     A#5    E5    G5
                                                                     Doll
|-------------------------------------|----------------------------------|
|-------------------------------------|----------------------------------|
|--------9-9--------------------------|--------9-9-----------------------|
|-8-8-8--9-9--5-5---5-5-5--6-6--2-2-2-|-8-8-8--9-9--5-5---5--------------|
|-8-8-8--7-7--5-5---5-5-5--6-6--2-2-2-|-8-8-8--7-7--5-5---5--------------|
|-6-6-6-------3-3-0-3-3-3--4-4--0-0-0-|-6-6-6-------3-3-0-3--------------|
Dist ON

  A#5    E5    G5          G#5   E5     A#5    E5    G5
  Steak!____________________________________________________         Test
|-------------------------------------|----------------------------------|
|-------------------------------------|----------------------------------|
|--------9-9--------------------------|--------9-9-----------------------|
|-8-8-8--9-9--5-5---5-5-5--6-6--2-2-2-|-8-8-8--9-9--5-5---5--------------|
|-8-8-8--7-7--5-5---5-5-5--6-6--2-2-2-|-8-8-8--7-7--5-5---5--------------|
|-6-6-6-------3-3-0-3-3-3--4-4--0-0-0-|-6-6-6-------3-3-0-3--------------|

  A#5    E5    G5          G#5   E5     A#5    E5    G5
 Meat!________________________________
|-------------------------------------|------------------------------------|
|-------------------------------------|------------------------------------|
|--------9-9--------------------------|--------9-9-------------------------|
|-8-8-8--9-9--5-5---5-5-5--6-6--2-2-2-|-8-8-8--9-9--5-5---5/6-6-6-6-2-2-2-2|
|-8-8-8--7-7--5-5---5-5-5--6-6--2-2-2-|-8-8-8--7-7--5-5---5/6-6-6-6-2-2-2-2|
|-6-6-6-------3-3-0-3-3-3--4-4--0-0-0-|-6-6-6-------3-3-0-3/4-4-4-4-0-0-0-0|

 A#5     E5       G5        E5         A#5    E5        G5       E5
     Look on the bright side suicide    Lost eyesight, im on your side  
|------------------------------------|------------------------------------|
|------------------------------------|------------------------------------|
|--------9-9-9-9---------------------|--------9-9-9-9---------------------|
|-8-8-8--9-9-9-9--5-5-5-----2-2-2-2--|-8-8-8--9-9-9-9--5-5-5-----2-2-2-2--|
|-8-8-8--7-7-7-7--5-5-5-----2-2-2-2--|-8-8-8--7-7-7-7--5-5-5-----2-2-2-2--|
|-6-6-6-----------3-3-3--4--0-0-0-0--|-6-6-6-----------3-3-3--4--0-0-0-0--|

 A#5     E5       G5        E5         A#5    E5        G5       E5
   Angel lft wing,rght wing,brkn wing      Lack of iron and/or sleeping
|------------------------------------|------------------------------------|
|------------------------------------|------------------------------------|
|--------9-9-9-9---------------------|--------9-9-9-9---------------------|
|-8-8-8--9-9-9-9--5-5-5-----2-2-2-2--|-8-8-8--9-9-9-9--5-5-5-----2-2-2-2--|
|-8-8-8--7-7-7-7--5-5-5-----2-2-2-2--|-8-8-8--7-7-7-7--5-5-5-----2-2-2-2--|
|-6-6-6-----------3-3-3--4--0-0-0-0--|-6-6-6-----------3-3-3--4--0-0-0-0--|

Verse - Clean Tone:
 N.C
                            I own my own pet virus  I get to pet and name her
|---|--------------------3/|----------------------------------------------|
|---|----------------------|----------------------------------------------|
|---|------------------2---|----------------------------------------------|
|---|----------------------|----------------------------------------------|
|---|----------------------|----------------------------------------------|
|6-0|-6-6--6-6-6-6-6-0-----|6-6-6-6-6-6-6-6-0-0-0-0--6--6-6---6-6-6--0--0-|

  Her   milk   is   my  shit     My   shit   is  her   milk
|-----------------------------------------------------------------------|
|-----------------------------------------------------------------------|
|-----------------------------------------------------------------------|
|-----------------------------------------------------------------------|
|-----------------------------------------------------------------------|
|6-6-6-6-6-6-6-6-0-0-0-0-0-0---6-6-6-6-6-6-6-6--0-0-0-0-0-0-------------|


Chorus - Distortion:
  A#5    E5    G5          G#5   E5     A#5    E5    G5
                                                                     Test
|-------------------------------------|----------------------------------|
|-------------------------------------|----------------------------------|
|--------9-9--------------------------|--------9-9-----------------------|
|-8-8-8--9-9--5-5---5-5-5--6-6--2-2-2-|-8-8-8--9-9--5-5---5--------------|
|-8-8-8--7-7--5-5---5-5-5--6-6--2-2-2-|-8-8-8--7-7--5-5---5--------------|
|-6-6-6-------3-3-0-3-3-3--4-4--0-0-0-|-6-6-6-------3-3-0-3--------------|
Dist ON

  A#5    E5    G5          G#5   E5     A#5    E5    G5
  meat!_______________________________________________               Doll
|-------------------------------------|----------------------------------|
|-------------------------------------|----------------------------------|
|--------9-9--------------------------|--------9-9-----------------------|
|-8-8-8--9-9--5-5---5-5-5--6-6--2-2-2-|-8-8-8--9-9--5-5---5--------------|
|-8-8-8--7-7--5-5---5-5-5--6-6--2-2-2-|-8-8-8--7-7--5-5---5--------------|
|-6-6-6-------3-3-0-3-3-3--4-4--0-0-0-|-6-6-6-------3-3-0-3--------------|

  A#5    E5    G5          G#5   E5     A#5    E5    G5
 Steak!______________________________________________________
|-------------------------------------|------------------------------------|
|-------------------------------------|------------------------------------|
|--------9-9--------------------------|--------9-9-------------------------|
|-8-8-8--9-9--5-5---5-5-5--6-6--2-2-2-|-8-8-8--9-9--5-5---5/6-6-6-6-2-2-2-2|
|-8-8-8--7-7--5-5---5-5-5--6-6--2-2-2-|-8-8-8--7-7--5-5---5/6-6-6-6-2-2-2-2|
|-6-6-6-------3-3-0-3-3-3--4-4--0-0-0-|-6-6-6-------3-3-0-3/4-4-4-4-0-0-0-0|

 A#5     E5       G5        E5         A#5    E5        G5       E5
     Look on the bright side suicide       Lost eyesight, im on your side  
|------------------------------------|------------------------------------|
|------------------------------------|------------------------------------|
|--------9-9-9-9---------------------|--------9-9-9-9---------------------|
|-8-8-8--9-9-9-9--5-5-5-----2-2-2-2--|-8-8-8--9-9-9-9--5-5-5-----2-2-2-2--|
|-8-8-8--7-7-7-7--5-5-5-----2-2-2-2--|-8-8-8--7-7-7-7--5-5-5-----2-2-2-2--|
|-6-6-6-----------3-3-3--4--0-0-0-0--|-6-6-6-----------3-3-3--4--0-0-0-0--|

 A#5     E5       G5        E5         A#5    E5        G5       E5
   Angel lft wing,rght wing,brkn wing      Lack of iron and/or sleeping
|------------------------------------|------------------------------------|
|------------------------------------|------------------------------------|
|--------9-9-9-9---------------------|--------9-9-9-9---------------------|
|-8-8-8--9-9-9-9--5-5-5-----2-2-2-2--|-8-8-8--9-9-9-9--5-5-5-----2-2-2-2--|
|-8-8-8--7-7-7-7--5-5-5-----2-2-2-2--|-8-8-8--7-7-7-7--5-5-5-----2-2-2-2--|
|-6-6-6-----------3-3-3--4--0-0-0-0--|-6-6-6-----------3-3-3--4--0-0-0-0--|


Solo - Clean Tone:
 N.C
|----------------4--------------------------------------------------------|
|---5--5----5--4---4--4--4--4/8--8-8-8--7--7/14--14--14--14--13--13--16---|
|-3-------3---------------------------------------------------------------|
|-------------------------------------------------------------------------|
|-------------------------------------------------------------------------|
|-------------------------------------------------------------------------|
||
|-------------------------------------------------------------------------|
|-16--16\15-16\15-16-15--11-11--10-10--7--6-5-4--5-5--4-4--2--0-----------|
|-------------------------------------------------------------------------|
|-------------------------------------------------------------------------|
|-------------------------------------------------------------------------|
|-------------------------------------------------------------------------|
||       /1/4============\
|-------/-----------------\---0---12--12--12---------------------16--18---|
|-4--5b/--(5)-(5)-(5)-(5)-r\--0-------12--12---12--12/13--14--16--------16|
|-4--------4--------------------------------------------------------------|
|-------------------------------------------------------------------------|
|-------------------------------------------------------------------------|
|-------------------------------------------------------------------------|
||                                                       /1/2
|-------------------------------------------------------/-------0--2--3---|
|-17--18--17--17/18--18--19--0--17--15--15--14--13--12b/------0-----------|
|-------------------------------------------------------------------------|
|-------------------------------------------------------------------------|
|-------------------------------------------------------------------------|
|-------------------------------------------------------------------------|
||                                                    /1/4
|---5------------------------------------------------/--------------------|
|-4---3--0--0--0--0--5--5---6--6---7---8----5\0---5b/------5-5-5----------|
|--------------------5--5---6--6---7---8-------------------4-4-4----------|
|-------------------------------------------------------------------------|
|-------------------------------------------------------------------------|
|-------------------------------------------------------------------------|

Chorus - Distortion:
  A#5    E5    G5          G#5   E5     A#5    E5    G5
                                                                     Doll
|-------------------------------------|----------------------------------|
|-------------------------------------|----------------------------------|
|--------9-9--------------------------|--------9-9-----------------------|
|-8-8-8--9-9--5-5---5-5-5--6-6--2-2-2-|-8-8-8--9-9--5-5---5--------------|
|-8-8-8--7-7--5-5---5-5-5--6-6--2-2-2-|-8-8-8--7-7--5-5---5--------------|
|-6-6-6-------3-3-0-3-3-3--4-4--0-0-0-|-6-6-6-------3-3-0-3--------------|
Dist ON

  A#5    E5    G5          G#5   E5     A#5    E5    G5
  Steak!_______________________________________________               Test
|-------------------------------------|----------------------------------|
|-------------------------------------|----------------------------------|
|--------9-9--------------------------|--------9-9-----------------------|
|-8-8-8--9-9--5-5---5-5-5--6-6--2-2-2-|-8-8-8--9-9--5-5---5--------------|
|-8-8-8--7-7--5-5---5-5-5--6-6--2-2-2-|-8-8-8--7-7--5-5---5--------------|
|-6-6-6-------3-3-0-3-3-3--4-4--0-0-0-|-6-6-6-------3-3-0-3--------------|

  A#5    E5    G5          G#5   E5     A#5    E5    G5
 Meat!______________________________________________________
|-------------------------------------|------------------------------------|
|-------------------------------------|------------------------------------|
|--------9-9--------------------------|--------9-9-------------------------|
|-8-8-8--9-9--5-5---5-5-5--6-6--2-2-2-|-8-8-8--9-9--5-5---5/6-6-6-6-2-2-2-2|
|-8-8-8--7-7--5-5---5-5-5--6-6--2-2-2-|-8-8-8--7-7--5-5---5/6-6-6-6-2-2-2-2|
|-6-6-6-------3-3-0-3-3-3--4-4--0-0-0-|-6-6-6-------3-3-0-3/4-4-4-4-0-0-0-0|

 A#5     E5       G5        E5         A#5    E5        G5       E5
     Look on the bright side suicide       Lost eyesight, im on your side  
|------------------------------------|------------------------------------|
|------------------------------------|------------------------------------|
|--------9-9-9-9---------------------|--------9-9-9-9---------------------|
|-8-8-8--9-9-9-9--5-5-5-----2-2-2-2--|-8-8-8--9-9-9-9--5-5-5-----2-2-2-2--|
|-8-8-8--7-7-7-7--5-5-5-----2-2-2-2--|-8-8-8--7-7-7-7--5-5-5-----2-2-2-2--|
|-6-6-6-----------3-3-3--4--0-0-0-0--|-6-6-6-----------3-3-3--4--0-0-0-0--|

 A#5     E5       G5        E5         A#5    E5        G5       E5
   Angel lft wing,rght wing,brkn wing      Lack of iron and/or sleeping
|------------------------------------|------------------------------------|
|------------------------------------|------------------------------------|
|--------9-9-9-9---------------------|--------9-9-9-9---------------------|
|-8-8-8--9-9-9-9--5-5-5-----2-2-2-2--|-8-8-8--9-9-9-9--5-5-5-----2-2-2-2--|
|-8-8-8--7-7-7-7--5-5-5-----2-2-2-2--|-8-8-8--7-7-7-7--5-5-5-----2-2-2-2--|
|-6-6-6-----------3-3-3--4--0-0-0-0--|-6-6-6-----------3-3-3--4--0-0-0-0--|

 A#5     E5       G5        E5         A#5    E5        G5       E5
       Protector  of  the   kennal           Ecto-Plasma   Ecto-Skeletal
|------------------------------------|------------------------------------|
|------------------------------------|------------------------------------|
|--------9-9-9-9---------------------|--------9-9-9-9---------------------|
|-8-8-8--9-9-9-9--5-5-5-----2-2-2-2--|-8-8-8--9-9-9-9--5-5-5-----2-2-2-2--|
|-8-8-8--7-7-7-7--5-5-5-----2-2-2-2--|-8-8-8--7-7-7-7--5-5-5-----2-2-2-2--|
|-6-6-6-----------3-3-3--4--0-0-0-0--|-6-6-6-----------3-3-3--4--0-0-0-0--|

 A#5     E5       G5        E5
         Ob-it-u-ary   birth-day             
|------------------------------------|
|------------------------------------|
|--------9-9-9-9---------------------|
|-8-8-8--9-9-9-9--5-5-5-----2-2-2-2--|
|-8-8-8--7-7-7-7--5-5-5-----2-2-2-2--|
|-6-6-6-----------3-3-3--4--0-0-0-0--|
 
  A#5     E5          G5            E5
      Your scent is still here in my place of recovery
|----------------------------------------------|
|----------------------------------------------|
|--------9--9--9--9----------------------------|
|-8-8-8--9--9--9--9---5--5--5-------2--2--2--2-|
|-8-8-8--7--7--7--7---5--5--5-------2--2--2--2-|
|-6-6-6---------------3--3--3---4---0--0--0--0-|


/  Slide up
\  Slide down
h  Hammer on
p  Pull off
~  Vibrato
+  Harmonic
x  Muffled note
b  Bend
r  Release the bend
pb Pre-Bend
из альбомов: “In Utero” (1993), “Heart-Shaped Box” (сингл) (1993), “From the Muddy Banks of the Wishkah” (концертная запись) (1996)


Список песен по алфавиту

Возможно, будут также интересны следующие песни:
Dumb
Lithium
Opinion
смотреть далее…
Если у вас есть подбор, которого нет на сайте, и вы хотите его опубликовать — присылайте!