Nirvana

Floyd the Barber

(Kurt Cobain)
Verse (x16):
e|-------------------------|
B|-------------------------|
G|-------------------------|
D|--3--3----2--2--2--------|
A|--3--3----2--2--2--------|
E|--1--1----0--0--0--------|


Chorus (x4):
e|-----------------------------------|
B|-----------------------------------|
G|--5--5------------4--4-------------|
D|--5--5----6--6----4--4----6--6-----|
A|--3--3----6--6----2--2----6--6-----|
E|----------4--4------------4--4-----|

Verse (x12)

Chorus (x4)

Solo:
e|---------------------------------------------|
B|---------------------------------------------|
G|---------------------------------------------| x3
D|3--------------------------------------------|
A|3-----------------0--1--3--3--1--0--1--3-----|
E|1--1--1--0--1--3-----------------------------|

e|--------------------------------------------------|
B|--------------------------------------------1-----|
G|-----------------------------------0--2--3--------|
D|3--------------------------0--2--3----------------| x1
A|3-----------------0--1--3-------------------------|
E|1--1--1--0--1--3----------------------------------|

Verse (x12)

Chorus (x4)

Verse (x1)


Hello Cobain, come on in
Floyd observes my hairy chin
Sit down chair don't be afraid
Steamed hot towel on my face

I was Shaved
I was Shaved
I was Shaved

Barney ties me to the chair
I can't see I'm really scared
Floyd breathes hard I hear a zip
Pee pee pressed against my lips

I'm ashamed
I'm ashamed
I'm ashamed

Solo

I sense others in the room
Opey, Aunt Bee, I presume
They take turns and cut me up
I died smothered in Andy's butt.

I was Shamed
I was Shamed
I was Shamed
из альбомов: “Bleach” (1989), “Sliver: The Best of the Box” (2005)


Список песен по алфавиту

Возможно, будут также интересны следующие песни:
Dumb
Lithium
Opinion
смотреть далее…
Если у вас есть подбор, которого нет на сайте, и вы хотите его опубликовать — присылайте!