Nirvana

Swap Meet

(Kurt Cobain)
They lead a lifetime that is comfortable
They travel far to keep their stomachs full
They make their living off of arts and crafts
The kind with seashells, driftwood and burlap
They make a deal when they come to town
The sunday swap meet is a battle ground
She loves him more than he will ever know
He loves her more than he will ever know


Keeps his cigarettes close to his heart
Keeps her photographs close to her heart
Keeps the bitterness close to the heart


Intro and verse
e---------------------------------------------------------------------
B---------------------------------------------------------------------
G---------------------------------------------------------------------
D---------5------------4--------------------5--------------4----------
A---------5------------4--------------------5--------------4----------
E---3b---------0---3--------3p2p0-----3b----------0---3---------3p2p0-

Chorus
e----------------------------------------
B----------------------------------------
G---2--2---2-2-2-------5-x-5-5-----------
D---2--2---2-2-2-------5-x-5-5-----------
A---0--0---0-0-0-------3-x-3-3-----------
E----------------------------------------
  keeps his cigarettes close to his heart

Chorus
e----------------------------------------------
B----------------------------------------------
G----------------------------------------------
D----------------------------------------------   (x2)
A------------------------5---------------------
E---0--3--2--1--0--1--3-----0--3--2--1--0--1---

Back to verse
e----------------------------------------------
B----------------------------------------------
G--------------------2--2--2--2--2-------------
D---5--5----4--4-----3--3--3--3--3-------------
A---5--5----4--4-----3--3--3--3--3------2------
E---3--3----2--2-----1--1--1--1--1------0------


Solo:
e--------------------------------------------------
B---------------------7p5p0--7p5p0--7p5p0--7p5p0---
G---3---3---3---3----------------------------------
D-----2---2---2---2--------------------------------
A--------------------------------------------------
E--------------------------------------------------

e---------------------------------------------------
B----------------------7p5p0--7p5p0--7p5p0--7p5p0---
G---3--2--3--2--3--2--------------------------------
D---3--2--3--2--3--2--------------------------------
A---------------------------------------------------
E---------------------------------------------------

e----------------------------------------------------
B----------------------7p5p0--7p5p0--7p5p0--7p5p0----
G---3--2--3--2--3--2---------------------------------
D----------------------------------------------------
A----------------------------------------------------
E----------------------------------------------------

e-----------------------------------------------------
B-----------------------------7p5p0--7p5p0------------
G---3--2--3--2--3--2--3--2----------------------------
D---------3--2----------------------------------------
A-----------------------------------------------------
E-----------------------------------------------------

e----------------------------------------------------------
B----------------------------------------------------------
G----------------------------------------------------------
D-------------------4--------------------------4-----------
A------5------------4---------------5----------4-----------
E---4--------0--3-------3-2-0----4------0--3-------3-2-0---

Outro
e-----------------------------------
B-----------------------------------
G---2---2---2---2---2---------------
D---3---3---3---3---3---------------
A---3---3---3---3---3-------2-------
E---1---1---1---1---1-------0-------
из альбома: “Bleach” (1989)


Список песен по алфавиту

Возможно, будут также интересны следующие песни:
Dumb
Where Did You Sleep Last Night
Opinion
смотреть далее…
Если у вас есть подбор, которого нет на сайте, и вы хотите его опубликовать — присылайте!