Nirvana

Mr. Moustache

(Kurt Cobain)
Intro:
Rhythm Fig 1.                 END Rhythm Fig 1. ==|
 N.C.
|-----------------------|-----------------------|
|-----------------------|-----------------------|
|-----------------------|-----------------------| (x4)
|-----------------------|-----------------------|
|---2-------------------|---1-------------------|
|-3---3--2--1--0--1--2--|-3---3--2--1--0--1--2--|

Rhythm Fig 2.                 END Rhythm Fig 2. ==|
  G5     N.C.
|-----------------------------------------------|
|-----------------------------------------------|
|-----------------------------------------------| (x4)
|-5--5------------------------------------------|
|-5--5------------------------------------------|
|-3--3---0--1--2--3-----------------------------|
        P.M_______|


Verse one:
 G5     N.C.     G5    N.C.     G5   N.C.      G5   N.C.      G5   N.C.
 Fill me in on  your new vision wake me up with indecision  help me trust your 
|--------------|--------------|--------------|--------------|--------------|
|--------------|--------------|--------------|--------------|--------------|
|--------------|--------------|--------------|--------------|--------------|
|-5--5---------|-5--5---------|-5--5---------|-5--5---------|-5--5---------|
|-5--5---------|-5--5---------|-5--5---------|-5--5---------|-5--5---------|
|-3--3-1-0-2-3-|-3--3-1-0-2-3-|-3--3-1-0-2-3-|-3--3-1-0-2-3-|-3--3-1-0-2-3-|

 G5     N.C.     G5    N.C.     G5   N.C.      N.C.
 mighty wisdom  yes, I eat cow  I am not proud_____________________________
|--------------|--------------|--------------|-----------------------------|
|--------------|--------------|--------------|-----------------------------|
|--------------|--------------|--------------|-----------------------------|
|-5--5---------|-5--5---------|-5--5---------|-----------------------------|
|-5--5---------|-5--5---------|-5--5---------|---2-------------------------|
|-3--3-1-0-2-3-|-3--3-1-0-2-3-|-3--3-1-0-2-3-|-3---3--2--1--0--1--2--------|
________________________
|-----------------------|-----------------------|--------------------------|
|-----------------------|-----------------------|--------------------------|
|-----------------------|-----------------------|--------------------------|
|-----------------------|-----------------------|--------------------------|
|---1-------------------|---2-------------------|---1----------------------|
|-3---3--2--1--0--1--2--|-3---3--2--1--0--1--2--|-3---3--2--1--0--1--2-----|


Verse 2:
With Rhythm Fig 2. x8

Show me how you question questions,
Lead the way to my temptation,
Take my hand and give it cleaning,
Yes, I eat cow, I am not proud

Then Rhythm Fig 1. x4

Chorus 1:
Rhythm Fig 3.
  B5 A5 C5           G5             F#5 F5     B5 A5 C5
                    Eas-y  in an eas-y chair
|------------------|-------------------------|-----------------------|
|------------------|-------------------------|-----------------------|
|-4--2--5-----5----|-------------------------|-4--2--5-----5---------|
|-4--2--5-----5----|-5--5--5--5--5--4--3-----|-4--2--5-----5---------|
|-2--0--3-----3----|-5--5--5--5--5--4--3-----|-2--0--3-----3---------|
|------------------|-3--3--3--3--3--2--1-----|-----------------------|
G5                         B5 A5 C5           G5                 F#5 F5
 Poop as  hard as rock                         I don't like you anyway
|-------------------------|------------------|------------------------|
|-------------------------|------------------|------------------------|
|-------------------------|-4--2--5-----5----|------------------------|
|-5---5--5-----5--5-------|-4--2--5-----5----|-5-5-----5----5---5-4-3-|
|-5---5--5-----5--5-------|-2--0--3-----3----|-5-5-----5----5---5-4-3-|
|-3---3--3-----3--3-------|------------------|-3-3-----3----3---3-2-1-|
G5     END Rhythm Fig 3. ==|
  Seal it in   a  box
|-------------------------|
|-------------------------|
|-------------------------|
|-5---5--5-----5--5-------|
|-5---5--5-----5--5-------|
|-3---3--3-----3--3-------|


Bridge:
 Rhythm Fig 4.
 A5                                         C5             D#5
                                           Now_________   You_________
|--------------------|--------------------|-------------|-------------|
|--------------------|--------------------|-------------|-------------|
|-2--2--2--2---2--2--|-2--2--2--2---2--2--|-5-5-5-5-5-5-|-8-8-8-8-8-8-|
|-2--2--2--2---2--2--|-2--2--2--2---2--2--|-5-5-5-5-5-5-|-8-8-8-8-8-8-|
|-0--0--0--0---0--0--|-0--0--0--0---0--0--|-3-3-3-3-3-3-|-6-6-6-6-6-6-|
|--------------------|--------------------|-------------|-------------|
                                                   END Rhythm Fig 4. --|
  A5          G#5 G5   A5          G#5 G5   C5           D#5             
                                           Now_________   You_________
|--------------------|--------------------|-------------|-------------|
|--------------1-0---|--------------1-0---|-------------|-------------|
|-2--2--2--2---1-0---|-2--2--2--2---1-0---|-5-5-5-5-5-5-|-8-8-8-8-8-8-|
|-2--2--2--2---------|-2--2--2--2---------|-5-5-5-5-5-5-|-8-8-8-8-8-8-|
|-0--0--0--0---------|-0--0--0--0---------|-3-3-3-3-3-3-|-6-6-6-6-6-6-|
|--------------------|--------------------|-------------|-------------|


Interlude:
With Rhythm Fig 1. x2

Then Rhythm Fig 2. x4

Verse 3:
With Rhythm Fig 2. x8

Fill me in on your new vision, 
Wake me up with indecsion,
Help me trust your mighty wisdom,
Yes, I eat cow, I am not proud___

Then Rhythm Fig 1. x2

Verse 4: 
With Rhythm Fig 2. x8

Show me how you question questions,
Lead the way to my temptation,
Take my hand and give it cleaning,
Yes, I eat cow, I am not proud___

Then Rhythm Fig 1. x4

Chorus 2:
With Rhythm Fig 3.

Bridge:
With Rhythm Fig 4. x2

Outro:
With Rhythm Fig 1. x7

Start to slow down near the end.


/  slide up
\  slide down
h  hammer-on
p  pull-off
~  vibrato
+  harmonic
x  Mute note
из альбома: “Bleach” (1989)


Список песен по алфавиту

Возможно, будут также интересны следующие песни:
Dumb
Where Did You Sleep Last Night
Opinion
смотреть далее…
Если у вас есть подбор, которого нет на сайте, и вы хотите его опубликовать — присылайте!