Nirvana

Downer

(Kurt Cobain)
Portray sincerity act out of loyalty
Defend your free country wish away pain
Hand out lobotomies to save little families
Surrealistic fantasy bland boring plain

Holy now in restitution
living out our date With fusion
in our whole fleece shun in bastard
dont feel guilty
master writing

Somebody says that their not much like I am
I know I can
Make enough up the words as you go along
I sing them some

Sickening pessimist hypocrite master
Conservative communist apocalyptic bastard
Thank you dear god for putting me on this earth
I feel very privileged in debt for my thirst

Holy now in restitution
living out our date With fusion
in our whole fleece shun in bastard
dont feel guilty
master writing

Somebody says that their not much like I am
I know I can
Make enough up the words as you go along
I sing them some

Intro: (Bass)
G|--------------------------|.|
D|--------------------------|.|
A|--------------------------|.|
E|--0--0--0--0--0--8--8--8--|.|

Then the guitar comes in:

E|--------------------------|.|
B|--------------------------|.|
G|-----------------5--5--5--|.|
D|--2--2--2--2--2--5--5--5--|.|
A|--2--2--2--2--2--3--3--3--|.|
E|--0--0--0--0--0-----------|.|

The verse is just the bass playing the intro riff, with drums. However if you want to 
guitar it would be:

E|-------------------------------------------------------------------------|
B|-------------------------------------------------------------------------|
G|---------------------------------------------------------------------5---|
D|--2--2--2--2--2--2--2--2--2--2--2--2--2--2--2--2--2--2--2--2--2--2---5---|
A|--2--2--2--2--2--2--2--2--2--2--2--2--2--2--2--2--2--2--2--2--2--2---3---|
E|--0--0--0--0--0--0--0--0--0--0--0--0--0--0--0--0--0--0--0--0--0--0-------|
  Put your sincerity act out of loyalty defend every country wish away pain...

Bridge:
E|--------------|.|
B|--------------|.|
G|--3--4--5--4--|.|
D|--3--4--5--4--|.|
A|--1--2--3--2--|.|
E|--------------|.|
    Holy now in...


Chorus (for the chorus I'm just gonna write it as chords as it will be much easier to 
*e5= High e5, E5= low E5.)
A5         A#5                   D5              e5*    f5
  Somebody says that their not much like I am, I know I can,
A5      A#5                D5           e5            E5
  Make enough up the words as you go along I sing them some...
из альбома: “Incesticide” (1992)


Список песен по алфавиту

Возможно, будут также интересны следующие песни:
Dumb
Lithium
Opinion
смотреть далее…
Если у вас есть подбор, которого нет на сайте, и вы хотите его опубликовать — присылайте!