Nirvana

Where Did You Sleep Last Night

(народная, Lead Belly)
Tune down half a step
Eb Ab Db Gb Bb Eb 

eb/-----0---------------3-3-3--------------0-0-0--|
Bb/-----0-------h2-2-2--3-3-3--4-4-4-4-4---0-0-0--|
Gb/-----2-------h2-2-2---------4-4-4-4-4---0-0-0--|
Db/-2-0-2-------h2-2-2---------4-4-4-4-4---2-2-2--|
Ab/-2-0-0---------------2-2-2--2-2-2-2-x---2-2-2--|
Eb/-0-----0h3h4---------3-3-3----------3b--0-0-0--|

Bb/-------------|
Gb/-----2-------|
Db/-2-0-2-------|
Ab/-2-0-0-------|
Eb/-0-----0h3h4-|

h hammer
b bend  
x mute

Verse 1:
Em                     A       G
My girl, my girl, don't lie to me
        B                        Em
Tell me where did you sleep last night
Em
In the pines, in the pines
          A              G
Where the sun don't ever shine
        B                  Em
I would shiver the whole night through

Verse 2:
Em                      A        G
My girl, my girl, where will you go
    B                         Em
I'm going where the cold wind blows
Em
In the pines, in the pines
          A              G
Where the sun don't ever shine
        B                Em
I would shiver the whole night through

Verse 3:
Em                 A            G
Her husband, was a hard working man
     B                 Em
Just about a mile from here
Em                      A       G
His head was found in a driving wheel
B                      Em
But his body never was found

Repeat the first verse

Interlude:
Em A G B Em

Gently repeat 2nd verse

Loudly repeat 1st verse

Em                      A       G
My girl, my girl, where will ya go
    B                         Em
I'm going where the cold wind blows
Em
In the pines, the pines
    A        G
The sun, the shine
     B                      Em
I'll shiver the whole night through

Outro: Interlude


Chords used:
        Em   A    G    B
eb/-----0----0----3---------|
Bb/-----0----2----3----4----|
Gb/-----0----2---------4----|
Db/-----2----2---------4----|
Ab/-----2----0----2----2----|
Eb/-----0----0----3---------|
из альбомов: “MTV Unplugged in New York” (концертная запись) (1994), “Pennyroyal Tea” (сингл) (1994), “Nirvana” (2002)


Список песен по алфавиту

Возможно, будут также интересны следующие песни:
Dumb
Lithium
Opinion
смотреть далее…
Если у вас есть подбор, которого нет на сайте, и вы хотите его опубликовать — присылайте!