Nirvana

Moist Vagina

(Kurt Cobain)
Intro (clean guitar):
    E  F#  
e|------------------------------------|--------2--------2-------2--|]
B|------------------------------------|--------0--------0-------0--|]
G|------------------------------------|-------------------------0--|]
D|--------------4--------------4------|----------------------------|]
A|------------------------------------|----------------------------|]
E|--0--2---0--2-—-0---2---0--2---(x2)-|--0--2----0--2------0--2----|]

Verse
              She had a moist vagina
      A5          C5           E  F#
e|-----------------------------------2--------2--------0--------|]
B|-----------------------------------0--------0--------0--------|]
G|--0-2-2-2-2-2-0-5-5-5-5-5-5--------------------------0--------|]
D|--0-2-2-2-2-2-0-5-5-5-5-5-5-----------------------------------|]
A|--0-0-0-0-0-0-0-3-3-3-3-3-3-----------------------------------|]
E|-----------------------------0--2-----0--2-----0--2-----0--2--|]
              I particularly enjoy the circumference
      A5          C5                      E  F#
e|----------------------------------------------2--------2--------2--------|]
B|----------------------------------------------0--------0--------0--------|]
G|--0-2-2-2-2-2-0-5-5-5-5-5-5-5-5-5-5-5-5----------------0-----------------|]
D|--0-2-2-2-2-2-0-5-5-5-5-5-5-5-5-5-5-5-5----------------------------------|]
A|--0-0-0-0-0-0-0-3-3-3-3-3-3-3-3-3-3-3-3----------------------------------|]
E|----------------------------------------0--2-----0--2-----0--2-----0--2--|]
              I'll be sucking warts off her anus . . . anilingus !!!
      A5          C5                        E5 F#5
e|-------------------------------------------------------------------|]
B|-------------------------------------------------------------------|]
G|--0-2-2-2-2-2-0-5-5-5-5-5-5-5-5-5-5-5-5-5------3^------------------|]
D|--0-2-2-2-2-2-0-5-5-5-5-5-5-5-5-5-5-5-5-5-2--4---2--4--2--4--2--4--|]
A|--0-0-0-0-0-0-0-3-3-3-3-3-3-3-3-3-3-3-3-3-2--4---2--4--2--4--2--4--|]
E|------------------------------------------0--2---0--2--0--2--0--2--|]
                                            ^---(distortion on)---^
                                          Chorus
              I prefer her to any other . . . marijuana !!!  
      A5          C5                E5 F#5 
e|--------------------------------|-------------------------|]
B|--------------------------------|-------------------------|]
G|--0-2-2-2-2-2-0-5-5-5-5-5-5-5-5-|-------------------------|]
D|--0-2-2-2-2-2-0-5-5-5-5-5-5-5-5-|-2--4--2--4--2--4--2--4--|]
A|--0-0-0-0-0-0-0-3-3-3-3-3-3-3-3-|-2--4--2--4--2--4--2--4--|]
E|--------------------------------|-0--2--0--2--0--2--0--2--|] x3
                                   ^----(distortion on)----^

  (distortion off)
e|-------------------------2------2--|]
B|--------------------------------0--|]
G|-----------------------------------|]
D|-----------------------------------|]
A|-----------------------------------|]
E|--0--2-----0--2----0--2----0--2----|]

Verse
              She had a moist vagina
      A5          C5           E  F#
e|------------------------------------2-------2-----------2---------2----|]
B|------------------------------------0-----------------0-------------0--|]
G|--0-2-2-2-2-2-0-5-5-5-5-5-5-------------------------0-----------0------|]
D|--0-2-2-2-2-2-0-5-5-5-5-5-5--------------------------------------------|]
A|--0-0-0-0-0-0-0-3-3-3-3-3-3--------------------------------------------|]
E|-----------------------------0--2-----0--2----0--2--------0--2---------|]

                                          Chorus
              I prefer her to any other . . . marijuana !!!  
      A5          C5                E5 F#5
e|--------------------------------|--------------------------|]
B|--------------------------------|--------------------------|]
G|--0-2-2-2-2-2-0-5-5-5-5-5-5-5-5-|------3^------------------|]
D|--0-2-2-2-2-2-0-5-5-5-5-5-5-5-5-|-2--4---2--4--2--4--2--4--|]
A|--0-0-0-0-0-0-0-3-3-3-3-3-3-3-3-|-2--4---2--4--2--4--2--4--|]
E|--------------------------------|-0--2---0--2--0--2--0--2--|] x11
                                   ^----(distortion on)-----^

Solo
из альбома: “All Apologies” (сингл) (1993)


Список песен по алфавиту

Возможно, будут также интересны следующие песни:
Dumb
Where Did You Sleep Last Night
Opinion
смотреть далее…
Если у вас есть подбор, которого нет на сайте, и вы хотите его опубликовать — присылайте!