Nirvana

Pay to Play

(Kurt Cobain)
Monkey see, monkey do - I don't know why I
Walk around, follow you - I don't know why I
Throw it out, keep it in - I don't know why I
Have to have poison skin - I don't know why I

Pay
Pay to play

Walk an inch, take a mile - I don't know why I
Never faded, never smiled - I don't know why I
Never mind, eat and run - I don't know why I
Monkey ass motherfuck - I don't know why I

I don't know why I
Pay
Pay to play


Intro:
---------------------------------------    -----------------------------------
---------------------------------------    3--3-------------------------------
---7--7--0--4--4--0-----------5--5--6--    2--2--0--4--4--0---------5--5--5---
---7--7--0--4--4--0--3--3--0--5--5--6-- or 0--0--0--4--4--0--3--3-0-5--5--5---
---5--5--0--2--2--0--3--3--0--3--3--4--    0--0--0--2--2--0--3--3-0-3--3--4---
---------------------1--1--0-----------    ------------------1--1-0-----------

Chorus:
---------------------------------------    -----------------------------------
---------------------------------------    3--3-------------------------------
---7--7--0--4--4--0-----------5--5--6--    2--2--0--4--4--0---------5--5--5---
---7--7--0--4--4--0--3--3--0--5--5--6-- or 0--0--0--4--4--0--3--3-0-5--5--5---
---5--5--0--2--2--0--3--3--0--3--3--4--    0--0--0--2--2--0--3--3-0-3--3--4---
---------------------1--1--0-----------    ------------------1--1-0-----------

Verse:
------------------------------------------------------------------------
------------------------------------------------------------------------
----------4/5b--5b--5b-----------4/5b--5b--5b-------4/5b--5b--5b--------
------------------------------------------------------------------------
------------------------------------------------------------------------
------------------------------------------------------------------------

Bridge:
------------------------------------------------------------------------
------------------------------------------------------------------------
----7--7--7--7--7--7--7--7----------------------------------------------
----7--7--7--7--7--7--7--7-----4--4--4--4--4--4--4--4-------------------
----5--5--5--5--5--5--5--5-----4--4--4--4--4--4--4--4-------------------
-------------------------------2--2--2--2--2--2--2--2-------------------


Список песен по алфавиту

Возможно, будут также интересны следующие песни:
Dumb
Lithium
Opinion
смотреть далее…
Если у вас есть подбор, которого нет на сайте, и вы хотите его опубликовать — присылайте!