Nirvana

Spank Thru

(Kurt Cobain)
And there's the soft pretentious mountains
glistening in the light of the trees
And all the flowers sing in D minor
And the birds fly happily
We'll be together once again my love
I need you back oh baby baby

I can't explain just why we lost it from the start
Living without you girl, you'll only break my heart

I can feel it, I can hold it
I can bend it, I can shape it, I can mold it
I can cut it, I can taste it
I can spank it, I can beat and masturbate it

I've been looking for days now
Always hearing the same old
City boy won't you spank thru
I can make it do things you wouldn't think it ever could

I can feel it, I can hold it
I can bend it, I can shape it, I can mold it
He can cut it, he can taste it it
I can spank it, need to tell you
Waiting now!

I've been looking for days now
Always hearing the same old
City boy won't you spank thru
I can make it do things you wouldn't think it ever could

I've been looking for days now
Always hearing the same old
City boy won't you spank thru
I can make it do things you wouldn't think it ever
You wouldn't think it ever could

Why is that so groovy?


Intro:
e-------------------------------------0--------------------------------------
b-----------------------3-3-3----------------------0---0---------------------
g-2----2--2-2-0---0-0-0-2-2-2-0--2--2-2--2-2-------0---0---------------------
!d-2--2-2--2-2-0---0-0-0-0-0-0-0--2--2-2--2-2-0-0---0---0---------------------
a-0--0-0--0-0-0-------0-------0--0--0-0--0-0-0-------------------------------
e-------------0-3-3-3-0-------0--------------0-3---3---3-2-0-----------------
  let ring

Verse riff
e----------------------------------------------------------------------------
b-----------------------3-3-3----------------------0-------------------------
g-2----2--2-2-0-----0---2-2-2-0--2--2-2--2-2-------0-------------------------
d-2--2-2--2-2-0---0-0-0-0-0-0-0--2--2-2--2-2---0---0---0---------------------
a-0--0------0-0-------0-------0--0--0----0-0-0-------------------------------
e---------------3-3-3-0----------------------0-3---3---3-2-0-----------------
PM..          PM.              PM..          PM

Chorus
e-2--2--2--2-2---------------------------------------------------------------
b-3--3--3--3-3-----2--2--2-2-2-----------------------------------------------
g-2--2--2--2-2-----2--2--2-2-2-0--------3--3------------5-----5-0------------
d-0--0--0--0-0-0---2--2--2-2-2-0--------3--3---3--------5-----5-0------------
a--------------0---0--0--0-0-0-0---3----3--3-3-3---5--5-5---5-5-0------------
e------------------------------0---1--1-1--1-1-1---3--3-3---3-3-0------------

e-2--2--2--2-2---------------------------------------------------------------
b-3--3--3--3-3-----2--2--2-2-2-----------------------------------------------
g-2--2--2--2-2-----2--2--2-2-2-0---------------------------------------------
d-0--0--0--0-0-0---2--2--2-2-2-0---3-----------------------5-5-5-5-----------
a--------------0---0--0--0-0-0-0---3---------------5-5-5-5-5-5-5-5-----------
e------------------------------0---1---------------3-3-3-3-3-3-3-3-----------
			                     PM..............
e-------0-0-0-0--------------------------------------------------------------
b-------0-0-0-0--------------------------------------------------------------
g-----------------0----------------------------------------------------------
d---5-5-5-5-5-5-5-0----------------------------------------------------------
a---5-5-5-5-5-5-5-0----------------------------------------------------------
e---3-3-3-3-3-3-3-0----------------------------------------------------------


Heavy verse riff
e----------------------------------------------------------------------------
b----------------------------------------------------------------------------
g------------5---------------------------------------------------------------
d----0-------5---0-----------------------------------------------------------
a-2--0--5----5---0-----------------------------------------------------------
e-0-----3------3-------------------------------------------------------------

Heavy chorus
e----------------------------------------------------------------------------
b--------------3----3-3-3-----------------------3----3-3---------------------
g-4--4-4-4-3-2-2----2-2-2-2-2-2-3--4--4-4-4-3-2-2----2-2-----2-2-3-----------
d-4--4-4-4-3-2-0----0-0-0-2-2-2-3--4--4-4-4-3-2-0----0-0-----2-2-3-----------
a-2--2-2-2-1-0------------0-0-0-1--2--2-2-2-1-0--------------0-0-1-----------
e----------------------------------------------------------------------------

e----------------------------------------------------------------------------
b--------------3----3-3-3----------------------------------------------------
g-4--4-4-4-3-2-2----2-2-2-2-2-2-3--4--4-4--4-4-4-----------------------------
d-4--4-4-4-3-2-0----0-0-0-2-2-2-3--4--4-4--4-4-4-------5-0-----3-0-----------
a-2--2-2-2-1-0------------0-0-0-1--2--2-2--2-2-2---5-5-----3-3---0-----------
e--------------------------------------------------3-3-----1-1---------------
			                      PM..     PM.
After 2nd heavy chorus
e----------------------------------------------------------------------------
b----------------------------------------------------------------------------
g----------------------------------------------------------------------------
d-2--------------------------------------------------------------------------
a-2--------------------------------------------------------------------------
e-0---/----------------------------------------------------------------------
из альбомов: “From the Muddy Banks of the Wishkah” (концертная запись) (1996), “Sliver: The Best of the Box” (2005), “Live at Reading” (концертная запись) (2009)


Список песен по алфавиту

Возможно, будут также интересны следующие песни:
Dumb
Lithium
Opinion
смотреть далее…
Если у вас есть подбор, которого нет на сайте, и вы хотите его опубликовать — присылайте!