Nirvana

Token Eastern Song

(Kurt Cobain)
I'm not gonna make it through
Something else is something new
I'm not gonna make it dream
Suicide is something mean
I'm not gonna make it through
It's something else, it's something new
I'm not gonna make it through
It's something else, it's something new
hold it in your gut.

I'm not gonna make it through
Something else is something new
I'm not gonna make it scream
Suicide is something mean
I'm not gonna make it through
Something else, it's something new
I'm not gonna make it dream
In this house it's something mean

Hold it in your gut.


Main riff:
------------------------------------0
------------------------------------0
------------------------------------ 
--------2--------------- 2----------2
--------2--------------- 2----------2
0----0--0------1--1--1--0--1-1-1---0

Chorus
----------- ---
----------- ---
----------- ---
5--5--5--4----
5--5--5--4----
3--3--3--2----

Solo
---------------------------------------------------------------------------
---------------------------------------------------------------------------
---------------------------------------------------------------------------
------6----------------3---------------6---6-7-I7b9--7b10--7-6------------
/7--7----7^---5--/7--7----8---5--I/7--6----47--------------------7-4444^^-
---------------------------------------------------------------------------

---------------------------------
/8--8-8-8-I-8/9-9-9-9--------13--
/8--8-8-8-I-8/9-9-9-9--9-7-9-13--
----------------------------- 12--
------------------------------14--
------------------------------16--


Список песен по алфавиту

Возможно, будут также интересны следующие песни:
Dumb
Where Did You Sleep Last Night
Opinion
смотреть далее…
Если у вас есть подбор, которого нет на сайте, и вы хотите его опубликовать — присылайте!