Nirvana

Verse Chorus Verse

(Kurt Cobain)
Neither side is sacred
No one wants to win
Feeling so sedated
Think I'll just give in
Taking medication
Till my stomach's full
Neither side is sacred
Crawling in the hole

The grass is greener
Over here
You're the fog that
Keeps it clear
Reinventing
What we knew
Taken time is
All but true
You're the reason
I feel pain
Feels so good to
Feel again

Neither side is sacred
No one wants to win
Feeling so sedated
But I can't give in
Taking medication
Till my stomach's full
Feelin so sedated
When I'm in my home

The grass is greener
Over here
You're the fog that
Keeps it clear
Re-inventing
What we knew
Taken time is
Weird but true
You're the reason
I feel pain
Feels so good to
Feel again

Oh


Intro/Verse
D|-----------------------------------------------------------------||
A|-----------------------------------------------------------------||
F|4--4---------------------------4---4-4/7-7-----------------------||
C|4--4-0-5-5-5-0--4--4-0-2-2-2-0-4---4-4/7-7-0-7--7-7-7-5-5-0------||
G|2--2-0-5-5-5-0--4--4-0-2-2-2-0-2---2-2/5-5-0-7--7-7-7-5-5-0------||
D|-----0-3-3-3-0--2--2-0-0-0-0-0-------------0-5--5-5-5-3-3-0------||

Chorus
D|--------------------------------||
A|--------------------------------||
F|-------8-8-8-----------7-7-7----||
C|6--6-0-8-8-8-0--9--9-0-7-7-7-0--||
G|6--6-0-6-6-6-0--9--9-0-5-5-5-0--||
D|4--4-0-------0--7--7-0-------0--||

Chorus Ending
D|--------------------------------||
A|--------------------------------||
F|--------------------------------||
C|6-6-6-6-6-6-6-6-4-4-4-4-4-4-4-0-||
G|6-6-6-6-6-6-6-6-4-4-4-4-4-4-4-0-||
D|4-4-4-4-4-4-4-4-2-2-2-2-2-2-2-0-||

Interlude
D|--------------------------------||
A|--------------------------------||
F|4--4-------0---------0-0--0---0-||
C|4--4-------------------0--0---0-||
G|2----2----------------------0---||
D|-------3---------2--------------||

Order:
Intro x2
Verse x4
Chorus x6
Chorus Ending x1
Verse x4
Chorus x6
Chorus Ending x1
Interlude x1
Verse x4
Chorus x6
Chorus Ending x1


Список песен по алфавиту

Возможно, будут также интересны следующие песни:
Dumb
Where Did You Sleep Last Night
Opinion
смотреть далее…
Если у вас есть подбор, которого нет на сайте, и вы хотите его опубликовать — присылайте!