Nirvana

Blandest

(Kurt Cobain)
You're my favorite
Of my saviours
You're my favorite
Oh no

Yes you're my favorite
Of my favors
You're my razor
Oh no

Hey!
And the situation wasn't quite
As intense as I thought
I need you around
To remind me what not to become
And the situation wasn't quite
As intense as I thought
I need you around
To remind me when not to be calm
Calm, calm, calm


Intro &Verse (Main riff)
E|------------|
B|------------|   
G|------------|    
D|------------|   play this riff 3 times, and then another 5 times
A|----4-7-4---|   making scraping noises in between playing it.
E|----------6-|   You don't have to pick scrapes during the verses

Chorus
                                *
E|----------------------------------2--|
B|----------------------------------2--|
G|----------------------------------2--|  Play this four times
D|----------------------2--------------|
A|----2-3-4-3-2-0-2-3-4---4-3-2-0------|
E|--------------------------------2----|
                                *
On the forth time, play up to where the * is and then play this
(Note: b means bend half a note up)

D|--------------------------------------------|
A|--------------------------------------------|
E|-2b-0-0-0-0-2b-0-0-0-0-2b-0-0-0-0-2b-0-0-0-0|

and this

D|-----------------|
A|-------6b-6b-6b-0| play this part 4 times
E|-4-7-4-----------|

And after that, you can play the main riff a couple of times.
из альбома: “Sliver: The Best of the Box” (2005)


Список песен по алфавиту

Возможно, будут также интересны следующие песни:
Dumb
Where Did You Sleep Last Night
Opinion
смотреть далее…
Если у вас есть подбор, которого нет на сайте, и вы хотите его опубликовать — присылайте!