Nirvana

(New Wave) Polly

(Kurt Cobain, Krist Novoselic, Dave Grohl)
Polly wants a cracker
I think I should get off her first
I think she wants some water
To put out the blow torch

isn't me
have a seed
Let me clip
dirty wings
Let me take a ride
cut yourself
want some help
please myself
got some rope
Haven't told
promise you
have been true
Let me take a ride
cut yourself
want some help
please myself

Polly wants a cracker
Maybe she would like more food
She asks me to untie her
A chase would be nice for a few

isn't me
have a seed
Let me clip
dirty wings
Let me take a ride
cut yourself
want some help
please myself
got some rope
Haven't told
promise you
have been true
Let me take a ride
cut yourself
want some help
please myself

Polly said
Polly says her back hurts
she's just as bored as me
She caught me off my guard
amazes me, the will of instinct

isn't me
have a seed
Let me clip
dirty wings
Let me take a ride
cut yourself
want some help
please myself
got some rope
Haven't told
promise you
have been true
Let me take a ride
cut yourself
want some help
please myself


Verse (Clean) 6x
|-------------------------------|
|-------------2-2---------------|
|-------------2-2--5-5-5--------|
|-2-2--5-5-5--0-0--5-5-5--------|
|-2-2--5-5-5-------3-3-3--------|
|-0-0--3-3-3--------------------|
 Poly wants a cracker...

 Chorus (Distortion) Play it fast, x8
|-------------------------------|
|-2-----------------------------|
|-2--5-5-5-----3-3-3------------|
|-0--5-5-5--2--3-3-3------------|
|----3-3-3--2--1-1-1------------|
|-----------0-------------------| 
 Isn't me...
 
 Verse (Distortion) 6x
|-------------------------------|
|-------------2-2---------------|
|-------------2-2--5-5-5--------|
|-2-2--5-5-5--0-0--5-5-5--------|
|-2-2--5-5-5-------3-3-3--------|
|-0-0--3-3-3--------------------|
 Poly wants a cracker...

 Chorus (Distortion) 8x
|-------------------------------|
|-2-----------------------------|
|-2--5-5-5-----3-3-3------------|
|-0--5-5-5--2--3-3-3------------|
|----3-3-3--2--1-1-1------------|
|-----------0-------------------| 
 Isn't me...

 Verse (Distortion) 6x
|-------------------------------|
|-------------2-2---------------|
|-------------2-2--5-5-5--------|
|-2-2--5-5-5--0-0--5-5-5--------|
|-2-2--5-5-5-------3-3-3--------|
|-0-0--3-3-3--------------------|
 Polly said her back hurts...
 Chorus (Distortion) 8x
|-------------------------------|
|-2-----------------------------|
|-2--5-5-5-----3-3-3------------|
|-0--5-5-5--2--3-3-3------------|
|----3-3-3--2--1-1-1------------|
|-----------0-------------------| 
 Isn't me...
из альбома: “Incesticide” (1992)


Список песен по алфавиту

Возможно, будут также интересны следующие песни:
Dumb
Where Did You Sleep Last Night
Opinion
смотреть далее…
Если у вас есть подбор, которого нет на сайте, и вы хотите его опубликовать — присылайте!