Nirvana

Turnaround

(Mark Mothersbaugh, Gerald Casale)
Take a step outside yourself,
And turn around.
Take a look at who you are,
It's pretty scary.
So silly,
Revolting.
You're not much.
You can't do anything.

Take a step outside the city,
And turn around.
Take a look at what you are,
It is revolting.
You're really nowhere.
So wasteful,
So foolish,
Poppycock.

Who said don't look back?
Don't believe 'em.
Go for that crazy sounding restaurant
'cause they're gonna try and get behind you.
Don't you let them do it.
You know what I'm talking about?
You hear me talking?
You hear me talking?

It's pretty scary, it's so revolting.
Take a step outside the country,
And turn around.
Take a look at what you are.
It is amazing.
Take a good look.
You're no big deal,
You're so petty.
It's lots.

Take a step outside the planet;
Turn around and around.
Take a look at where you are.
It's pretty scary. 



 Intro
e|-------|---------------------------------------|
b|-------|---------------------------------------|
g|--7h9--|*----------------------9-9-9-9-9-9p7--*|
d|-------|*-------------------------------------*|
a|-------|---------------------------------------|
e|-------|----0-0-0-0-0-0-0-0-0------------------|
              . . . . . . . . . 
play that*--*part 7 times
         *--*
Chorus
e|-----------------------------------------------| 
b|-----------------------------------------------|
g|--7--7-----5--5--5---2---2--2--2---2--2--2--2--|
d|--7--7-----5--5--5---2---2--2--2---2--2--2--2--|
a|--5--5-----3--3--3---0---0--0--0---0--0--0--0--|
e|-----------------------------------------------|

e|----------------------------------------------------------------------------| 
b|----------------------------------------------------------------------------|
g|--7--7---5--5--5-----------------------------------2---2--2--2--2--2--2--2--|
d|--7--7---5--5--5--5--5--5--5--5--0--3--3--5--5--5--2---2--2--2--2--2--2--2--|
a|--5--5---3--3--3--5--5--5--5--5--0--3--3--5--5--5--0---0--0--0--0--0--0--0--|
e|------------------3--3--3--3--3--0--1--1--3--3--3---------------------------|

e|--------------------------------------------|
b|--------------------------------------------|
g|--------------------7--7--7--7--7--7--7--7--|
d|--3--3--3--5--5--5--7--7--7--7--7--7--7--7--|
a|--3--3--3--5--5--5--5--5--5--5--5--5--5--5--|
e|--1--1--1--3--3--3--------------------------|

e|------------------------------------------|
b|------------------------------------------|
g|-----------------------5--5--5---5--5--5--|
d|--3--3--3--3--5--5--5--5--5--5---5--5--5--|
a|--3--3--3--3--5--5--5--3--3--3---3--3--3--|
e|--1--1--1--1--3--3--3---------------------|

Verse
e|-------------------------------------|
b|-------------------------------------|
g|----------------------9-9-9-9-9-9p7--|
d|-------------------------------------|
a|-------------------------------------|
e|--0-0-0-0-0-0-0-0-0------------------|
    . . . . . . . . .
play it 4 times

Chorus
e|--------------------------------------|
b|--------------------------------------|
g|--7--7--5--5-----2--2--2--2--2--2--2--|
d|--7--7--5--5-----2--2--2--2--2--2--2--|
a|--5--5--3--3-----0--0--0--0--0--0--0--|
e|--------------------------------------|

e|--------------------------------------|
b|--------------------------------------|
g|--7--7--5--5--------------------------|
d|--7--7--5--5-----5--5--5--5--5--5--5--|
a|--5--5--3--3-----5--5--5--5--5--5--5--|
e|-----------------3--3--3--3--3--3--3--|

e|--------------------------------------|
b|--------------------------------------|
g|-----------------2--2--2--2--2--2--2--|
d|--3--3--5--5-----2--2--2--2--2--2--2--|
a|--3--3--5--5-----0--0--0--0--0--0--0--|
e|--1--1--3--3--------------------------|

e|--------------------------------------|
b|--------------------------------------|
g|-----------------7--7--7--7--7--7--7--|
d|--3--3--5--5-----7--7--7--7--7--7--7--|
a|--3--3--5--5-----5--5--5--5--5--5--5--|
e|--1--1--3--3--------------------------|

e|--------------------------------------|
b|--------------------------------------|
g|-----------------5--5--5--5--5--5--5--|
d|--3--3--5--5-----5--5--5--5--5--5--5--|
a|--3--3--5--5-----3--3--3--3--3--3--3--|
e|--1--1--3--3--------------------------|

Pre-Solo
e|------------------|
b|------------------|
g|------------------|
d|------------------|
a|------------------|
e|-0-0-0-0-0-0-0-0--|
   . . . . . . . .               
play that 8 times 

Solo
e|--------------------------------------------------------|
b|--------------------------------------------------------|
g|--7-7--5-5--2-2-2-----2-2-2--7-7--5-5-------------------|
d|--7-7--5-5--2-2-2--5--2-2-2--7-7--5-5--5-5-5--3--5-5-5--|
a|--5-5--3-3--0-0-0--5--0-0-0--5-5--3-3--5-5-5--3--5-5-5--|
e|-------------------3-------------------3-3-3--1--3-3-3--|

e|-------------------------------------------------------------------------------|
b|-------------------------------------------------------------------------------|
g|------------2-2-2-----2-2-2------------7-7-7-7-7-7-7------------5-5-5-5-5-5-5--|
d|--3-3--5-5--2-2-2--5--2-2-2--3-3--5-5--7-7-7-7-7-7-7--3-3--5-5--5-5-5-5-5-5-5--|
a|--3-3--5-5--0-0-0--5--0-0-0--3-3--5-5--5-5-5-5-5-5-5--3-3--5-5--3-3-3-3-3-3-3--|
e|--1-1--3-3---------3---------1-1--3-3-----------------1-1--3-3-----------------|

Verse
e|-------------------------------------|
b|-------------------------------------|
g|----------------------9-9-9-9-9-9p7--|
d|-------------------------------------|
a|-------------------------------------|
e|--0-0-0-0-0-0-0-0-0------------------|
    . . . . . . . . .
play that 4 times           

Chorus
e|--------------------------------------|
b|--------------------------------------|
g|--7--7--5--5-----2--2--2--2--2--2--2--|
d|--7--7--5--5-----2--2--2--2--2--2--2--|
a|--5--5--3--3-----0--0--0--0--0--0--0--|
e|--------------------------------------|

e|--------------------------------------|
b|--------------------------------------|
g|--7--7--5--5--------------------------|
d|--7--7--5--5-----5--5--5--5--5--5--5--|
a|--5--5--3--3-----5--5--5--5--5--5--5--|
e|-----------------3--3--3--3--3--3--3--|

e|--------------------------------------|
b|--------------------------------------|
g|-----------------2--2--2--2--2--2--2--|
d|--3--3--5--5-----2--2--2--2--2--2--2--|
a|--3--3--5--5-----0--0--0--0--0--0--0--|
e|--1--1--3--3--------------------------|

e|--------------------------------------|
b|--------------------------------------|
g|-----------------7--7--7--7--7--7--7--|
d|--3--3--5--5-----7--7--7--7--7--7--7--|
a|--3--3--5--5-----5--5--5--5--5--5--5--|
e|--1--1--3--3--------------------------|

e|--------------------------------------|
b|--------------------------------------|
g|-----------------5--5--5--5--5--5--5--|
d|--3--3--5--5-----5--5--5--5--5--5--5--|
a|--3--3--5--5-----3--3--3--3--3--3--3--|
e|--1--1--3--3--------------------------|

Verse End
e|-------------------------------------|
b|-------------------------------------|
g|----------------------9-9-9-9-9-9p7--|
d|-------------------------------------|
a|-------------------------------------|
e|--0-0-0-0-0-0-0-0-0------------------|
    . . . . . . . . .
play that 6 times


Standard tuning 
p  Pull on/off | off in this song
.  palm mute
из альбомов: “Incesticide” (1992), “Hormoaning” (мини-альбом) (1992)


Список песен по алфавиту

Возможно, будут также интересны следующие песни:
Dumb
Lithium
Opinion
смотреть далее…
Если у вас есть подбор, которого нет на сайте, и вы хотите его опубликовать — присылайте!