Nirvana

Even in His Youth

(Kurt Cobain)
Even in his youth (x3)
He was nothing

Kept his body clean (x3)
Goin nowhere

Daddy was ashamed (x3)
He was something

Disgraced the family name (x3)
He was something

The thief is born before you're through
Ive got nothing left to prove
If I die before I wake
Hope I dont come back a slave

Yeah yeah yeah!

Even in his youth (x3)
He was nothing

Kept his body clean (x3)
Goin nowhere

Daddy was ashamed (x3)
He was nothing

Disgraced the family name (x3)
Goin nowhere

The thief is born before you're through
Ive got nothing left to prove
If I die before I wake
Hope I dont come back a slave

Oh, ah, yeah!

The thief is born before you're through
Ive got nothing left to prove
If I die before I wake
Hope I dont come back again!

Oh, ah, yeah!

Even in his youth (x2)
Yeah, yeah

Even in his youth (x2)
Yeah, yeah

Even in his youth
Yeah, yeah

Even in his youth
Yeah, yeah (x4)


Main Riff
|-----------------------------------------------------------------|
|-----------------------------------------------------------------|
|-5---------------5---------------5---------------5---------------|
|-5-----5-6-6-6-5-5-----5-6-6-6-5-5-----5-6-6-6-5-5-----5-6-6-6-5-|
|-3-----5-6-6-6-5-3-----5-6-6-6-5-3-----5-6-6-6-5-3-----5-6-6-6-5-|
|-------3-4-4-4-3-------3-4-4-4-3-------3-4-4-4-3-------3-4-4-4-3-|
       ‘Even in his youth...’

Chorus
|-----------------------------------------------------------------|
|-----------------------------------------------------------------|
|---------5-5-5-5---------7-7-7-7---------5-5-5-5---------7-7-7-7-|
|-2-2-2-2-5-5-5-5-5-5-5-5-7-7-7-7-2-2-2-2-5-5-5-5-5-5-5-5-7-7-7-7-|
|-2-2-2-2-3-3-3-3-5-5-5-5-5-5-5-5-2-2-2-2-3-3-3-3-5-5-5-5-5-5-5-5-|
|-0-0-0-0---------3-3-3-3---------0-0-0-0---------3-3-3-3---------|

Post-chorus
|-----------------------------------|
|-----------------------------------|
|-5-5-5-5-5-5-5-5-5-----------------|
|-5-5-5-5-5-5-5-5-5-----------------|
|-3-3-3-3-3-3-3-3-3-----------------|
|-----------------------------------|

Solo
|-----------------------------------|-----------------------------------|
|-----------------------------------|-----------------------------------|
|-----------------------7-5---------|-------------------------7-5-------|
|---------0-2-3-5~--5-5-----7-5p3p0-|---------0-2-3-5~--3-2-0-----7~----|
|-0-2-2-3---------------------------|-0-2-2-3---------------------------|
|-----------------------------------|-----------------------------------|

|-----------------------------------|-----------------------------------|
|-----------------------------------|-----------------------------------|
|-----------------------7-5---------|-----------------------7-5---------|
|---------0-2-3-5~--5-5-----7-5p3p0-|---------0-2-3-5~--5-5-----7-5p3p0-|
|-0-2-2-3---------------------------|-0-2-2-3---------------------------|
|-----------------------------------|-----------------------------------|

|-----------------------------------|-----------------------------------|
|-----------------------------------|-----------------------------------|
|-----------------------7-5---------|-----------------------7-5---------|
|---------0-2-3-5~--5-5-----7-5p3p0-|---------0-2-3-5~--5-5-----7-5p3p0-|
|-0-2-2-3---------------------------|-0-2-2-3---------------------------|
|-----------------------------------|-----------------------------------|

|-----------------------------------|-----------------------------------|
|-----------------------------------|-----------------------4b--4b------|
|-----------------------7-5---------|---------------5~--3-5-4b--4b------|
|---------0-2-3-5~--5-5-----7-5p3p0-|-------0-2-3-5---------------------|
|-0-2-2-3---------------------------|-0-2-3-----------------------------|
|-----------------------------------|-----------------------------------|
из альбомов: “Smells Like Teen Spirit” (сингл) (1991), “Hormoaning” (мини-альбом) (1992)


Список песен по алфавиту

Возможно, будут также интересны следующие песни:
Dumb
Where Did You Sleep Last Night
Opinion
смотреть далее…
Если у вас есть подбор, которого нет на сайте, и вы хотите его опубликовать — присылайте!