Elvis Presley

Snowbird

(Gene MacLellan)
Intro:
C Em Dm C
 
e||-----------------------------------1--3--5----7--7p6p5--5--5p4p3--|
B||------------------------------------------------------------------|
G||--5--7--9----4--5--7----2--4--5-----------------------------------|
D||------------------------------------------------------------------|
A||------------------------------------------------------------------|
E||------------------------------------------------------------------|
 
e||-1--0-------------0-1-0--------------------||
B||-------3--1---1-3-------3-1----------------||
G||----------------------------4-2------------||
D||-3--2--0------------------------5-3-2------||
A||----------3---------------------------5-3--||
E||-------------------------------------------||
 
 
C Em Dm
Beneath this snowy mantle cold and clean
G
The unborn grass lies waiting
C
for it's coat to turn to green
C Em Dm
The snowbird sings a song he always sings
G
And speaks to me of flowers
C
that will bloom again in spring
 
C Em Dm
When I was young my heart was young then too
G
Anything that it would tell me,
C
that's the thing that I would do
C Em Dm
But now I feel such emptiness within
G
For the thing that I want most in life
C
Is the thing I can't win
 
C Em Dm
Spread your tiny wings and fly away
G
And take the snow back with you
C
Where it came from on that day
C Em Dm
The one I love forever is untrue
G
And if I could you know
C
that I would fly away with you
 
C Em Dm
The breeze along the river seems to say
G
That she'll only break my heart again
C
should I decide to stay
C Em Dm
So little snowbird take me with you when you go
G
To that land of gentle breezes
C
where the peaceful waters flow
из альбома: “Elvis Country (I'm 10,000 Years Old)” (1971)


Список песен по алфавиту

Возможно, будут также интересны следующие песни:
Can't Help Falling in Love
Always on My Mind
Tutti Frutti
смотреть далее…
Если у вас есть подбор, которого нет на сайте, и вы хотите его опубликовать — присылайте!