The Rolling Stones

Moon Is Up

(Mick Jagger, Keith Richards)
Intro:
    C                           F    
E ----------------------------|---------------------------------| 
B ----------------------------|---------------------------------| 
G ----------------------------|---------------------------------| 
D ----------------------------|-3-3-3-3-3-3-3-3-3-3-2-----------| 
A --3-3-3-3-3-3-3-3-3-3-2-----|-----------------------3-0--0----| 
E ------------------------3-0-|----------------------------0----| 
 
Continued: 
   C C C C C C C C C C   F
   / / / / / / / / / / 
E -0-O-0-0-0-0-0-0-0-0------------------------------------------| 
B -1-1-1-1-1-1-1-1-1-1------------------------------------------| 
G -0-0-0-0-0-0-0-0-0-0------------------------------------------| 
D -2-2-2-2-2-2-2-2-2-2---3-2------3-3-2-------------------------| 
A -3-3-3-3-3-3-3-3-3-3-------3-0--------3-0--0------------------| 
E -0-0-0-0-0-0-0-0-0-0-----------------------0------------------|
 
C 
 Moon is up 
 The sun is down 
F 
 You can't have it both ways round 
C 
 Ooh, babe, won't you listen to me 
F 
 We are worlds apart, you see 
   C                    F 
 Mmmmmm, where are you now 
   C                 F 
 Mmmmmm, crying out loud 
               C 
 Where did you go 
          G            C  F   C  F 
 When I needed you 
 
C 
 The sun sinks behind the clouds 
F 
 And hides his tears without a sound 
      C 
 The moon looks on reflectively 
      F 
 So spare a thought for you and me 
   C                    F 
 Mmmmmm, where are you now 
   C                    F 
 Mmmmmm, dark are the clouds 
               C 
 Where did you go 
          G               C  F   C  F + Intro Riff (1st part) 
 When I needed you  
 
C 
 The moon is up 
 The sky is black 
F 
 I'll sail away and won't come back 
      C 
 The sun goes down 
 The stars will rise 
F 
 And dance across 
 The darkened skies 
   C 
 Mmmmmm, the sun goes down 
F                    C  F    
 The moon comes up 
 
     C 
The moon is up 
The sun goes down 
     F 
And you can't have it both ways round 
    C 
So come on baby and listen to me 
      F                             C 
Cause we are worlds apart, you see 
     F 
The sun goes down 
     C 
The moon comes up 
     F             C 
The sun goes down
из альбома: “Voodoo Lounge” (1994)


Список песен по алфавиту

Возможно, будут также интересны следующие песни:
Paint It Black
Out of Time
Rain Fall Down
смотреть далее…
Если у вас есть подбор, которого нет на сайте, и вы хотите его опубликовать — присылайте!