Roxette

Dressed for Success

(Per Gessle)
Capo on 3th fret

Yeah Yeah Yeah

D  G  A  G  (x2)

e|------------------------------------------------------------|
B|-5/7-7-7-7--5---5-5-5---7-5---5/7-7-7-7--5---5---5/7-5------|
G|--------------7-------7-----7--------------7---7-------7-7--|
D|------------------------------------------------------------|
A|------------------------------------------------------------|
E|------------------------------------------------------------|

D                G         D  
Tried to make it little by little
D                G      D         A, A5, A, Asus4, A, A5, A    
Tried to make it bit by bit on my own
D                G    D 
Quit the job the gray believers
D                  G     D            A, A5, A, Asus4, A, A5, A  
Another town where I get close to the bone

Pre-chorus:
                        G            D
Whatcha gonna tell your brother? - oh oh oh
                        G                D
whatcha gonna tell your father? - I don't know!
                        G               D  A  G
Whatcha gonna tell your mother? - Let me go...

Chorus:
              D        G     A    G
I'm gonna get dressed for success
Em         G         A          G    
Shaping me up for the big time baby
    D      G     A     G
Get dressed for success
Em         G           A
Shaping it up for your love
G       D    G       A    G 
For your love yea yea yea...

e|------------------------------|
B|5/7-7-7-7--5---5---5/7-5------|
G|-------------7---7-------7-7--|
D|------------------------------|
A|------------------------------|
E|------------------------------|

D                G         D  
I'm not afraid, a trembling flower
D                          G      D             A  A5  A  Asus4  A  A5  A 
I'll feed your heart and blow the dust from your eyes
D                  G         D  
And in the dark things happen faster
D                     G      D             A  A5  A  Asus4  A  A5  A
I love the way you sway your hips next to mine

Pre-chorus:
                        G            D
Whatcha gonna tell your brother? - oh oh oh...
                        G            D
whatcha gonna tell your father? - I don't know!
                        G               D  A  G
Whatcha gonna tell your mother? - Let me go...

Chorus:
             D        G     A    G
I'm gonna get dressed for success
Em         G         A          G    
Shaping me up for the big time baby
    D      G     A     G
Get dressed for success
Em         G           A
Shaping it up for your love

Look sharp!

Solo:
e|----------------------------|
B|-3/5-5-5-3h5-5/7-7-7-7-5-3--|
G|----------------------------|  (x3)
D|----------------------------|
A|----------------------------|
E|----------------------------|

Yeah Yeah Yeah...

e|------------------5---------|
B|-3/5-5-5-3h5-3-5/7--7-5-3---|
G|----------------------------|
D|----------------------------|
A|----------------------------|
E|----------------------------|

Pre-chorus:
                        G            D
Whatcha gonna tell your brother? - oh oh oh...
                        G            D
whatcha gonna tell your father? - I don't know!
                        G               D  A  G
Whatcha gonna tell your mother? - Let me go...

Chorus:
D       G     A    G    Em   G   A   G   
Dressed for success
              D       G     A    G
I'm gonna get dressed for success
Em        G           A         G
hitting a spot for the big time baby
    D       G    A      G
Get dressed for success
Em         G           A
shaping it up for your love

G       D
For your love
G        A
Yeah Yeah Yeah
G        D
For your love
G         A
Yeah Yeah Yeah

G        D
For your love
G        A 
Yeah Yeah Yeah
G        D
For your love
G         A    G
Yeah Yeah Yeah

D Dsus4 D D2 D Dsus4 ...


Список песен по алфавиту

Возможно, будут также интересны следующие песни:
It Must Have Been Love
Listen to Your Heart
Here Comes the Weekend
смотреть далее…
Если у вас есть подбор, которого нет на сайте, и вы хотите его опубликовать — присылайте!