Егор и Опизденевшие

Без названия (track 15)

(Егор Летов, Константин «Кузя УО» Рябинов)
Оригинал: https://www.youtube.com/watch?v=r-zrkc1CxIM
(Опизденевшие Психоделия Tomorrow track15)

Интро - орган:
постоянно играются 2 ноты - Ре (D) и Ля (A).
Можно варьировать в разных позициях и октавах.

E||-------------------|-------------------|---------------------|
B||-------------------|-------------------|--6--------5----3----|
G||-------------------|-------------------|---------------------|
D||--7----------------|-------------------|---------------------|
A||--5----------------|-------------------|---------------------|
E||-------------------|-------------------|---------------------|

E||-------------------|-------------------|-----
B||--5-6-5-3-5--------|----------3----5---|--6--
G||-------------------|-------------------|-----
D||-------------------|-------------------|-----
A||-------------------|-------------------|-----
E||-------------------|-------------------|-----

Бас-партия:
Используются 3 риффа. На 03:23 играется мини-проигрыш.
Последовательность риффов и время их начала внизу.
Riff A                                                                     
|-------------------7--|--10----10--9--7-----7--|
|-------------5--7-----|------------------8-----|
|-5-----5--8-----------|------------------------|
|----------------------|------------------------|

|-------------------7--|--10----10--9--7-----7--|
|-------------5--7-----|------------------8-----|
|--5----5--8-----------|------------------------|
|----------------------|------------------------|

Riff B               
|--7------7-------7----|------------------------|
|------------8---------|---------------7--5--7--|
|----------------------|--5------5--8-----------|
|----------------------|------------------------|

|--7------7-------7----|------------------------|
|------------8---------|---------------7--5--7--|
|----------------------|--5------5--8-----------|
|----------------------|------------------------|

Riff C                                          
|----------------------|---------------------7--|
|-------------7--5-----|------------------7-----|
|--5----5--8--------5--|--8------5--8--5--------|
|----------------------|------------------------|

|----------------------|---------------------7--|
|-------------7--5-----|------------------7-----|
|--5----5--8--------5--|--8------5--8--5--------|
|----------------------|------------------------|

 ...Riff C ending         Mini-solo                                           
|-------------------7--|---------10--10----9----|--7------7--7-------7--|
|----------------7-----|--7---------------------|---------------8-------|
|--8----5--8--5--------|------------------------|-----------------------|
|----------------------|------------------------|-----------------------|

Riff A...                                           
|-------------------7--|--10----10--9--7-----7--|
|-------------5--7-----|------------------8-----|
|--5----5--8-----------|------------------------|
|----------------------|------------------------|

A x4 00:53
B x4 01:11
A x4 01:27
B x4 01:45
A x4 02:00
B x4 02:17
A x4 02:33
B x4 02:50
C x4 03:05
mini-solo 03:23
A x7 03:26
B x8 03:57
C x4 04:31
B x6 04:48
A x4 05:12
B x4 05:30
C x4 05:45
B x4 06:03
A x4 06:19
B x8 06:36
A x4 07:09
B x4 07:27
A x4 07:42
B x4 08:00
A x4 08:16
B x4 08:33
A x4 08:49
B x4 09:06
C x4 09:23
B x4 09:39
A x4 09:55
C x4 10:13
A x4 10:31
B x10 10:48
A x4 11:30
C x4 11:47
B x12 12:05
A x4 12:56
B x4 13:13
A x4 13:29
B x4 13:47
C x4 14:03
B x4 14:20
A x4 14:36
B x4 14:52
A x4 15:09

По моему мнению, Егор и Кузя закашивали под Group 1850.
Сравните: https://youtu.be/tDce_dSm4sk?t=18m41s (Group 1850 - 1969-Paradise Now)
Безусловно, у Егора и Кузи получилось намного круче.


Список песен по алфавиту

Возможно, будут также интересны следующие песни:
Туман
Отряд не заметил потери бойца
Про мишутку
смотреть далее…
Если у вас есть подбор, которого нет на сайте, и вы хотите его опубликовать — присылайте!