Король и шут

Воспоминания о былой любви

(Андрей Князев, Михаил Горшенёв)
Intro:
                     Em        Am           D   
E--------------------0---------0-------0----2--3--2--0-----\
H----------------------0-------1--1--3------3-----------3--\
G------------------------0-----2------------2--------------\
D--------1--2--4--5--------0---2---------------------------\
A--2--4----------------------------------------------------\
E----------------------------------------------------------\

    G         C                Am             H7  
E-------------0---0------------0---0----------2------------\
H-------------1-----1----------1-----1--------0------------\
G--------0----0--------0-------2-------2------2------------\
D-----0-------2-----------2----2---------2----1------------\
A-------------3----------------0--------------2------------\
E--3----------0-------------------------------0------------\

Em          Am      D            G
Дремлет за горой, мрачный замок мой. 
C        Am           H7
Душу мучает порой, царящий в нем покой. 
Я своих фантазий страждущий герой, 
А любви моей живой все образы со мной. 

Припев:
        Em      Am      D         G           C
	Я часто вижу страх в смотрящих на меня глазах.
        H7      Am       D         G
	Им суждено уснуть в моих стенах, 
	  C             Am
	Застыть в моих мирах.
        Em      Am     D          G       C
	Но сердце от любви горит, моя душа болит. 
        H7     Am      D           G
	И восковых фигур прекрасен вид - 
	C      Am    H7
	Покой везде царит! 

Я их приводил в свой прекрасный дом. 
Их вином поил и развлекались мы потом. 
Иногда у них легкий был испуг, 
От прикосновений к нежной шее крепких рук. 

припев

Solo: (Guitar1 и Guitar2 одновременно)

Guitar1:   Em    Am    D      G    C     Am     H7    H7    

Guitar2:E----7--8--------8--7--------7--5------------------\
        H-5--------8--7--------7--5--------5--4--5-5--4--5-\

Guitar1:  H7      H7        Em     Am     D      G     C
               
Guitar2:E---------------------10--8--------12--10---------\
        H-5--4--5-5--4-----5---------8--7----------7--5---\

Guitar1:       Am      H7       H7      H7
                                           
Guitar2:E--7--5-------------------------------------------\
        H--------5--4--5-5--4--5-5--4--5-5--4-------------\ 

(Каждый аккорд  Guitar1  бьет  два  раза 
вниз  по  струнам   одиночными  ударами, кроме H7)

Вот несет одна мне свои цветы, 
Вот стоит другая, погруженная в мечты. 
Я пытался их до смерти рассмешить, 
Но пришлось, как в старой сказке, просто задушить! 

припев
из альбомов: «Герои и Злодеи» (2000), «Как в старой сказке» (2001)


Список песен по алфавиту

Возможно, будут также интересны следующие песни:
Тринадцатая рана
Клеймённый огнём
Мадам Жоржетт
смотреть далее…
Если у вас есть подбор, которого нет на сайте, и вы хотите его опубликовать — присылайте!