Кино

Попробуй спеть вместе со мной

(Виктор Цой)
intro:
       Gm           Cm          A#             F
e|-------------------3-----3--1-1-1-1-------------------
B|-------------------4-----4--3-3-3-3-------------------
G|-------------------5-----5--3-3-3-3-------------------
D|----------0--------5-----5--3-3-3-3-------------------
A|-------1-----1-----3-----3--1-1-1-1----------0--3--0--
E|--3--3----------3-----------------------1--1----------

     Gm             Cm
  На улицах снег утратил свою белизну,
         Am                 A#
  В стеклянности талой воды    мы видим Луну.
  Мы идем, мы сильны и бодры...
  Замерзшие пальцы ломают спички,
  От которых зажгутся костры.

chorusriff:
       Gm           Cm          A#              F
e|---------------------3-----3--1---------------------------
B|---------------------4-----4--3------------------1-----1--
G|---------------------5-----5--3------------------2-----2--
D|---------------------5-----5--3------------------3-----3--
A|-----0-1--1--0-1--3--3-----3--1--1--0-1--0-1-----3-----3--
E|--3-------------------------------------------1--1-----1--

 Gm                  Cm        A#
    Попробуй спеть вместе со мной,
  F
    Вставай рядом со мной...

[intro]

Это наш день, мы узнали его по расположению звезд,
Знаки огня и воды, взгляды богов.
И вот мы делаем шаг на недостроенный мост,
Мы поверили звездам,
И каждый кричит: "Я готов!"

  Попробуй спеть вместе со мной,
  Вставай рядом со мной...

[запилы в G-minor]

Те, кто слаб, живут из запоя в запой,
Кричат: "Нам не дали петь!", кричат: "Попробуй тут спой!"
Мы идем, мы сильны и бодры...
Замерзшие пальцы ломают спички,
От которых зажгутся костры.

  Попробуй спеть вместе со мной,
  Вставай рядом со мной...
из альбомов: «Группа крови» (1988), «Концерт в Дубне. 1987» (концертная запись) (2002)


Список песен по алфавиту

Возможно, будут также интересны следующие песни:
Группа крови
Звезда по имени Солнце
Спокойная ночь
смотреть далее…
Если у вас есть подбор, которого нет на сайте, и вы хотите его опубликовать — присылайте!