Chuck Berry

а также: The Rolling Stones, The Beatles

Carol

(Chuck Berry)
Intro:
E--------/6-6-6-6-6------------------------6-6-6-6-6-6-6-6-6-6-----|
B----6-8-/6-6-6-6-6-8---6-6-6-6-6-6----6-8-6-6-6-6-6-6-6-6-6-6-----|
G-/7----------------8-7---6-6-6-6-6-/7-------------------------8b--|
D------------------------------------------------------------------|
A------------------------------------------------------------------|
E------------------------------------------------------------------|

Rhytm through whole song:
E----------------------|
B----------------------|
G----------------------|
D----------------------|
A-8-8-10-10-8-8-10-10--|
E-6-6-6--6--6-6-6--6---|

       Eb      
Oh, Carol 
                                Bb
Don't let him steal your heart away 
F    
I'm gonna learn to dance 
      Eb                     Bb
If it takes me all night and day 

Bb
Climb into my machine so we can groove on out 
I know some swinging little joint where we can jump and shout 
Eb                                            
It's not too far back on the highway not so long a ride 
Bb
You park the car out in the open you can walk inside 
F
A little cutie takes your hat and you can thank her ma'am 
Bb
'Cause every time you make the scene you find the joint is jammed 

Repeat intro

Oh, Carol 
Don't let him steal your heart away 
I'm gonna learn to dance 
If it takes me all night and day 

Repeat intro

Guitar solo

Now, if you want to hear some music like the boys are playing 
Hold tight, bang your foot don't let it carry you away 
Don't let the heat overcome you when they play so loud 
Won't the music intrigue you when they get a crowd 
Well you can't dance I know you would you could 
I got my eyes on you, baby, cause you dance so good 

Repeat intro

Oh, Carol 
Don't let him steal your heart away 
I'm gonna learn to dance 
If it takes me all night and day 

Repeat intro

Oh, Carol 
Don't let him steal your heart away 
I've got to learn to dance 
If it takes me all night and day
из альбомов:

Список песен по алфавиту

Возможно, будут также интересны следующие песни:
C'est La Vie (You Never Can Tell)
Roll Over Beethoven
You Can't Catch Me
смотреть далее…
Если у вас есть подбор, которого нет на сайте, и вы хотите его опубликовать — присылайте!